Nil Karaibrahimgil - Bronzla��mak

Am                      Dm   
E ------------------------------------------------------
B ------------------------------------------------------
G ------------------------------------------------------
D --------------------------------15-14h15p14-12----12--
A -----------------------------12----------------15-----
E ------------------------------------------------------
  Ben bu yaz bembeyaz bir otelde
 
  
  G                       C
E ------------------------------------------------------
B ------------------------------------------------------
G ------------------------------------------------------
D --------------------------------14-12h14p12-10-9-10---
A -----------------------------10-----------------------
E ------------------------------------------------------
  kendime rastlamak istiyorum


  Am                     Dm
E ------------------------------------------------------
B ------------------------------------------------------
G ------------------------------------------------------
D ---------------------------12-14-15-14h15p14-12-10-12-
A ------------------------------------------------------
E ------------------------------------------------------
  sevgilim kimbilir imdi nerde


   G                         C
E ------------------------------------------------------
B ------------------------------------------------------
G ------------------------------------------------------
D --------------------------------14--12h14p12--10-9-10-
A ------------------------------------------------------
E ------------------------------------------------------
  diye soran arklar dinlemiyorum



 (Am)              Dm      G           C
 ben bu yaz bronzlamak    kendimle uzlamak  

 Am             Dm         G           C
  yer yer yozlamak    uzaklamak istiyorum 

 (Am)              Dm      G           C
 ben bu yaz bronzlamak    kendimle uzlamak  

 Am             Dm           G         C     E
 yer yer yozlamak    uzaklamak istiyorum 

       Am   
 ben bu yaz (son nakratta)


 Am                   Dm
 en ok satan kitaplar elimde 
 G                C
 kendime ynelmek istiyorum 
 Am                  Dm
 denizden kp yeni bikinimle 
 G                 C
 mek rpermek istiyorum 


 Dm       G        C      E
 yansn  ayam  kumlarda 
 Dm       G         C     E
 snsn gnlerim mumlarla 
 Dm      G        C      E
 mavi turuncu tonlarda 
 Dm         G        C       E
 toplansn dalgalar kumsalda



  Solo >>>       

   (E)            Am                 Dm
E ------------------------------------------------------
B -------------------5-----------------6&8-6-6--5-5-----
G ----7b(9)r--5-7-7----5--4-4-5-------------------------
D ------------------------------7---5-------------------
A ------------------------------------------------------
E ------------------------------------------------------

           G               C
E ------------------------------------------------------
B -------------------------x-8-x-10~~-8h10p8------------
G --7-7--5-4-4------------x-9-x------------------------
D --------------5-5------------------------------------
A ------------------------------------------------------
E ------------------------------------------------------


  (C)                                         Am
E ------------------------------------------------------
B ------------------------------------------12-13-------
G ---------------------------------10-12-14-------------
D ------------------------10-12-14----------------------
A ---------------10-12-14-------------------------------
E --(8)&10h12h13----------------------------------------


                              Dm
E ----------------------------15--13-13--12-12----------
B ---12-12h13-12-13--12-13-12------------------15-15----
G ------------------------------------------------------
D ------------------------------------------------------
A ------------------------------------------------------
E ------------------------------------------------------


                  G                   C         E
E ------------------------------------------------------------
B -13-12--12--------------------------------------------------
G -----------12-12--12h14p12-------10---9-------7---7--5-4-
D -------------------------------&9----x--------5---x---------
A ------------------------------------------------------------
E ------------------------------------------------------------