Şebnem Ferah - Can Kırıkları

intro   (Guitar x) clean...
E------------------------------------------------------------------5--
B----5&6--8-0--6-6&5-----6--5--------5&6--8--1-----6-6&5-----------5--
G----------------------7---------7-------------------------7-5-----5--
D-7---------------------------7--0------------------------------7-----
A-0---------------------------0---------------------------------0-----
E---------------------------------------------------------------------


Bu kalabaln iinde
Yapayalnz hissetmektense
Dnyann bir ucunda tek bamaym

Kir gstermeyen renkeleriniz
Sizin olsun korkmaktansa
Bulankln tam iinde bir bamaym

E----------------------------------------------------------------------
B----------------------------------------------------------------------
G----------------------------------------------------------------------
D-7-7-X-X-X-X--7-7-X-X-X-X--7-7-X-X--8-8-X-X-X-X--8-8-X-X-X-X--8--5--5-
A-7-7-X-X-X-X--7-7-X-X-X-X--7-7-X-X--8-8-X-X-X-X--8-8-X-X-X-X--8--5--5-
E-5-5-X-X-X-X--5-5-X-X-X-X--5-5-X-X--6-6-X-X-X-X--6-6-X-X-X-X--6--3--3-
  Benim belkide.....

solo 1 
E----------------------------------------------------------------------
B-15-15-15-15-15-15-15-15--15--15--------------------------------------
G-14-14-14-14-14-14-14-14--14--14-15-15-15-15-15-15-15-15--15&17-17----
D-12-12-12-12-12-12-12-12--12--12-15-15-15-15-15-15-15-15--15&17-17----
A---------------------------------13-13-13-13-13-13-13-13--13&15-15----
E----------------------------------------------------------------------

-----------------------------------------------------------------------
--15-15-15-15-15-15-15-15--15--15-------------------------13-----------
--14-14-14-14-14-14-14-14--14--14----------------12-12-14---14---------
--12-12-12-12-12-12-12-12--12--12--12&14-14&15-15----------------------
-----------------------------------------------------------------------
-----------------------------------------------------------------------

-----------------------------------------------------------------------
--13p15-13p15-13p15-13p15-13p15---15p17-15p17-15p17-15p17-15p17--------
-----------------------------------------------------------------------
-----------------------------------------------------------------------
-----------------------------------------------------------------------
-----------------------------------------------------------------------

-----------------------------------------------------------------------
--17&18-15----18-18&20--21p-21p-21p-21p-21p-21p------------------------
-----------14----------------------------------------------------------
-----------------------------------------------------------------------
-----------------------------------------------------------------------
-----------------------------------------------------------------------

solo 2
E-----------------------------------------
B-15-15--15-15--15-15--15-15--15&17-17-17-
G-14-14--14-14--14-14--14-14--14&14-14-14-
D-12-12--12-12--12-12--12-12--12&14-14-14-
A-----------------------------------------
E-----------------------------------------

---------------------------------------
--18-18--18-18--18-18--18-18--18-17-15-
--15-15--15-15--15-15--15-15--------15-
--15-15--15-15--15-15--15-15--15-14-12-
--13-13--13-13--13-13--13-13--------13-
---------------------------------------

-----------------------------------------------------------------------
-15-15-15-15-15-15-15-15--15&18-18-------------------------------------
-14-14-14-14-14-14-14-14--14&17-17---15-15&17-17&19-19-22--------------
-12-12-12-12-12-12-12-12--12&15-15-------------------------------------
-12-12-12-12-12-12-12-12--12&15-15-------------------------------------
-----------------------------------------------------------------------



X 3
---------------------------------
---------------------------------
--7-7-7-7-7-7--------------------
--7-7-7-7-7-7-8-8-8-8-8&10--10---
--5-5-5-5-5-5-8-8-8-8-8&10--10---
--------------6-6-6-6-6&8----8---	
Ooooo.....

----------------------------------------
------------------17p-17-17p-17-17p-17--
--7-7-7-7-7&9-9-------------------------
--7-7-7-7-7&9-9-------------------------
--5-5-5-5-5&7-7-------------------------
----------------------------------------