Mat - Kolay De��il(Tab)

- Giri

Son ldeki figrde distortion var. Aslnda ana riffi alacak olan
gitar giriyor.

 *   *   *   *    *   *   *   *    *   *   *   *    *   *   *   *
|7---7-7-7-7-7-6-|--6---6---6-6-6-|7---7-7-7-7-7-6-|--6---6---6-6-6-|
|7---7-7-7-7-7-8-|--8---8---8-8-8-|7---7-7-7-7-7-8-|--8---8---8-8-8-|
|9---9-9-9-9-9-6-|--6---6---6-6-6-|9---9-9-9-9-9-6-|--6---6---6-6-6-|
|9---9-9-9-9-9-8-|--8---8---8-8-8-|9---9-9-9-9-9-8-|--8---8---8-8-8-|
|7---7-7-7-7-7-6-|--6---6---6-6-6-|7---7-7-7-7-7-6-|--6---6---6-6-6-|
|----------------|----------------|----------------|----------------|


 *   *   *   *    *   *   *   *    *   *   *   *    *   *   *   *
|7---7-7-7-7-7-6-|--6---6---6-6-6-|7---7-7-7-7-7-6-|----------9---9-|
|7---7-7-7-7-7-8-|--8---8---8-8-8-|7---7-7-7-7-7-8-|--------8---8---|
|9---9-9-9-9-9-6-|--6---6---6-6-6-|9---9-9-9-9-9-6-|------6---------|
|9---9-9-9-9-9-8-|--8---8---8-8-8-|9---9-9-9-9-9-8-|----8-----------|
|7---7-7-7-7-7-6-|--6---6---6-6-6-|7---7-7-7-7-7-6-|--6-------------|
|----------------|----------------|----------------|----------------|



- Ana Riff

Birinci gitar lead, ikincisi ritim. Kaytta nc bir gitar giriteki
akorlara devam ediyor. Btn melodi iki kez alnyor.

 *   *   *   *    *   *   *   *    *   *   *   *    *   *   *   *
|----------------|----------------|----------------|----------------|
|--------7-8-----|--8---8-7---7-8-|--------7-8-----|--8---8-7-------|
|----9-----------|----------------|----9-----------|----------------|
|9-----9-----9-8-|----8-----9-----|9-----9-----9-8-|----8-----------|
|----------------|----------------|----------------|----------------|
|----------------|----------------|----------------|----------------|
|                                                                   |
|                                                                   |
|----------------|----------------|----------------|----------------|
|----------------|----------------|----------------|----------------|
|----------------|----------------|----------------|----------------|
|9-9-9-9-9-9-9-8-|8-8-8-8-8-8-8-8-|9-9-9-9-9-9-9-9-|8-8-8-8-8-8-8-8-|
|7-7-7-7-7-7-7-7-|7-7-7-7-7-7-7-7-|7-7-7-7-7-7-7-7-|7-7-7-7-7-7-7-7-|
|----------------|----------------|----------------|----------------|



- Ktalar ("satarm ruhumu..."&"kyarm canma...")

zetle u akorlar: D B E C G D B E C G D. Hepsi beli.


 *   *   *   *    *   *   *   *    *   *   *   *    *   *   *   *    *   *   *   *
|----------------|----------------|----------------|----------------|----------------|
|----------------|----------------|----------------|----------------|----------------|
|7---------------|4---------------|9-9-9-9-9-9-9-9-|5-5-5-5-5-5-5-5-|----------------|
|7---------------|4---------------|9-9-9-9-9-9-9-9-|5-5-5-5-5-5-5-5-|5-5-5-5-5-5-5-5-|
|5---------------|2---------------|7-7-7-7-7-7-7-7-|3-3-3-3-3-3-3-3-|5-5-5-5-5-5-5-5-|
|----------------|----------------|----------------|----------------|3-3-3-3-3-3-3-3-|


 *   *   *   *    *   *   *   *    *   *   *   *    *   *   *   *    *   *   *   *    *   *   *   *
|----------------|----------------|----------------|----------------|----------------|----------------|
|----------------|----------------|----------------|----------------|----------------|----------------|
|7-7-7-7-7-7-7-7-|4-4-4-4-4-4-4-4-|9-9-9-9-9-9-9-9-|5-5-5-5-5-5-5-5-|----------------|7-7-7-7-7-7-7-7-|
|7-7-7-7-7-7-7-7-|4-4-4-4-4-4-4-4-|9-9-9-9-9-9-9-9-|5-5-5-5-5-5-5-5-|5-5-5-5-5-5-5-5-|7-7-7-7-7-7-7-7-|
|5-5-5-5-5-5-5-5-|2-2-2-2-2-2-2-2-|7-7-7-7-7-7-7-7-|3-3-3-3-3-3-3-3-|5-5-5-5-5-5-5-5-|5-5-5-5-5-5-5-5-|
|----------------|----------------|----------------|----------------|3-3-3-3-3-3-3-3-|----------------|



- Kta nakarat geileri ("gerek deil..."&"kolay deil her eye en batan...")

zetle u akorlar: B C A D B C A D B&D# (son ldeki akorumsu).

Hepsi gevek bir palm mutingle alnacak. Sona doru iyice gevetilecek. Son lde hi
palm muting olmayacak.

Akorlar majr yazdm ama si telindeki notalar belli belirsiz duyulmal. Son lnn
altndaki ">" iaretleri vurgulu alnacak vurular gsteriyor.


 *   *   *   *    *   *   *   *    *   *   *   *    *   *   *   *
|----------------|----------------|----------------|----------------|
|4-4-4-4-4-4-4-4-|5-5-5-5-5-5-5-5-|2-2-2-2-2-2-2-2-|7-7-7-7-7-7-7-7-|
|4-4-4-4-4-4-4-4-|5-5-5-5-5-5-5-5-|2-2-2-2-2-2-2-2-|7-7-7-7-7-7-7-7-|
|4-4-4-4-4-4-4-4-|5-5-5-5-5-5-5-5-|2-2-2-2-2-2-2-2-|7-7-7-7-7-7-7-7-|
|2-2-2-2-2-2-2-2-|3-3-3-3-3-3-3-3-|0-0-0-0-0-0-0-0-|5-5-5-5-5-5-5-5-|
|----------------|----------------|----------------|----------------|


 *   *   *   *    *   *   *   *    *   *   *   *    *   *   *   *    *   *   *   *
|----------------|----------------|----------------|----------------|----------------|
|4-4-4-4-4-4-4-4-|5-5-5-5-5-5-5-5-|2-2-2-2-2-2-2-2-|7-7-7-7-7-7-7-7-|----------------|
|4-4-4-4-4-4-4-4-|5-5-5-5-5-5-5-5-|2-2-2-2-2-2-2-2-|7-7-7-7-7-7-7-7-|----------------|
|4-4-4-4-4-4-4-4-|5-5-5-5-5-5-5-5-|2-2-2-2-2-2-2-2-|7-7-7-7-7-7-7-7-|9-9-9-9-9-9-9-9-|
|2-2-2-2-2-2-2-2-|3-3-3-3-3-3-3-3-|0-0-0-0-0-0-0-0-|5-5-5-5-5-5-5-5-|6-6-6-6-6-6-6-6-|
|----------------|----------------|----------------|----------------|----------------|
                                                                     >     >     >


- Nakarat ("kolay deil rol yapsam da...")

zetle u akorlar: Em Am D B C Am Bsus4 B.

Son iki l hari baslan en alt teldeki notalar zellikle vurgusuz
vurularda belli belirsiz duyulmal.

Bu akor kalb her  nakaratta da ikier kez alnyor, ama tekrarlarda
ritimler her nakaratta biraz deiiyor.

lk nakaratta ikinci tekrarn son lsnde crescendo var.
kinci nakaratta ikinci tekrarn 5., 6. ve 7. lleri; nc nakaratta
ikinci tekrarn son l hari tamam aadaki ritimle alnyor:

 *   *   *   *
|x-----x---------|

kinci nakaratta son l tek vuru, son nakaratta birinci nakarat gibi
crescendo var. Ritim davullardan anlalr zaten.

 *   *   *   *    *   *   *   *    *   *   *   *    *   *   *   *
|----------------|----------------|----------------|----------------|
|8-8-8-8-8-8-8-8-|----------------|7-7-7-7-7-7-7-7-|----------------|
|9-9-9-9-9-9-9-9-|5-5-5-5-5-5-5-5-|7-7-7-7-7-7-7-7-|8-8-8-8-8-8-8-8-|
|9-9-9-9-9-9-9-9-|7-7-7-7-7-7-7-7-|7-7-7-7-7-7-7-7-|9-9-9-9-9-9-9-9-|
|7-7-7-7-7-7-7-7-|7-7-7-7-7-7-7-7-|5-5-5-5-5-5-5-5-|9-9-9-9-9-9-9-9-|
|----------------|5-5-5-5-5-5-5-5-|----------------|7-7-7-7-7-7-7-7-|
 >     >     >    >     >     >    >     >     >    >     >     >



 *   *   *   *    *   *   *   *    *   *   *   *    *   *   *   *
|----------------|----------------|----------------|----------------|
|----------------|----------------|----------------|----------------|
|9-9-9-9-9-9-9-9-|5-5-5-5-5-5-5-5-|9-9-9-9-9-9-9-9-|8-8-8-8-8-8-8-8-|
|1010101010101010|7-7-7-7-7-7-7-7-|9-9-9-9-9-9-9-9-|9-9-9-9-9-9-9-9-|
|1010101010101010|7-7-7-7-7-7-7-7-|9-9-9-9-9-9-9-9-|9-9-9-9-9-9-9-9-|
|8-8-8-8-8-8-8-8-|5-5-5-5-5-5-5-5-|7-7-7-7-7-7-7-7-|7-7-7-7-7-7-7-7-|
 >     >     >    >     >     >    >     >     >    >     >     >



- Interlude (ikinci nakarattan sonraki enstrmantal blm)

ki kez alnyor. "&" slide anlamnda.

 *   *   *   *    *   *   *   *    *   *   *   *    *   *   *   *
|----------------|----------------|----------------|----------------|
|----------------|----------------|----------------|----------------|
|----------------|----------------|----------------|----------------|
|2-------------8-|----------------|2-------------8&|9-8-------------|
|2-------------8-|----------------|2-------------8&|9-8-------------|
|0-------------6-|----------------|0-------------6&|7-6-------------|



- Release ("yakmaz delikanl adama...")

lk 14 l ana riff'in ritim figryle ayn. Yani aadaki
7 kez alnyor:

 *   *   *   *    *   *   *   *
|----------------|----------------|
|----------------|----------------|
|----------------|----------------|
|9-9-9-9-9-9-9-8-|8-8-8-8-8-8-8-8-|
|7-7-7-7-7-7-7-7-|7-7-7-7-7-7-7-7-|
|----------------|----------------|

Sonra da ("irkin kadnlar..."):

 *   *   *   *    *   *   *   *
|----------------|--12------------|
|----------------|------11--------|
|----------------|----------------|
|2---2-----------|----------------|
|2---2-----------|----------------|
|0---0-----------|----------------|



- Outro

Son nakarattan sonra ana riff'in ilk iki tekrar dier yerlerdeki gibi.
Son iki tekrarda ritim gitar interlude blmndeki akorlar alyor. Son iki
lyse yle (lead stte, ritim altta):

 *   *   *   *    *   *   *   *
|----------------|----------------|
|----------------|----------------|
|--------9-------|----------------|
|--------------8-|----------------|
|7---------------|----------------|
|----------------|----------------|
|                                 |
|                                 |
|----------------|----------------|
|----------------|----------------|
|--------9-------|----------------|
|2---2---9-----8-|----------------|
|2---2---7-----8-|----------------|
|0---0---------6-|----------------|