Vega - Yanl��zca Ben Y��zlerce Sen

ntro: Em Bm Am Bm
aramay bover, bu seferki benim elim olsun (intro)
elimi evir, evir. boynunda dnsn dursun 
yalnzca ben, ben sana dokunduumda 
mis kokarsn karlnda 
Em        Bm      Am        Bm
aramay bover, bu seferki benim evim olsun 
Em            Bm    Am       Bm
evimi evir, evir. heyecandan dnsn dursun 
Em       Bm    Am       Bm
yalnzca ben. yzlerce sen 
Em
gez, toz, in, k                                  
Bm
bin yol, gir, k 
Bm              Bm
batsan, ksan, bitsen, durulsan 
Em         Bm           Am      Bm               Em  Em
Yorulunca yorulunca ahh azalsan ve benim olsan ahhh!!!
Bm                   Am
biraz konusak... sonra 
Bm
bap bap ubap bap. 
Solo 
e------------------------------------------------------------------------I
B---------------------------8-8-7-7-8-8-7-7-8-8-7-7-8-8-7-7--------------I
G-9999-7777--------------------------------------------------------------I
D-----------10101010-9999------------------------------------------------I
A------------------------------------------------------------------------I
E------------------------------------------------------------------------I

e------------------------------------------------------------------------I
B------7777-------------8-8-7-7-8-8-7-7-8-8-7-7-8-8-7-7------------------I
G--9999----7777----------------------------------------------------------I
D--------------10101010--------------------------------------------------I
A------------------------------------------------------------------------I
E------------------------------------------------------------------------I

e------------------------------------------------------------------------I
B------------------------------------------------------------------------I
G--9999-7777-------------------------------------------------------------I
D--------------10101010-9999-77777777-9----------------------------------I
A------------------------------------------------------------------------I
E------------------------------------------------------------------------I

Em           Bm          Am              Bm    
aramay bover, bu seferki benim evim olsun 
Em            
evimi evir, evir.
Bm
bolukta dnsn dursun 
Am             Bm
yalnzca ben, yzlerce sen 

Solo 2

e---7777777-7--------------------------------------------------------------I
B------------10101010101010-10-8888888-8-7777777-7-8888888-8-10101010101010I
G--9----------------------------------------------------------------------
-I
D--------------------------------------------------------------------------I
A--------------------------------------------------------------------------I
E--------------------------------------------------------------------------I

e---7777777-7--------------------------------------------------------------I
B-10---------10101010-10-8888888-8-7777777-7-8888888-8-10101010101010------I
G-------------------------------------------------------------------------
-I
D--------------------------------------------------------------------------I
A--------------------------------------------------------------------------I
E--------------------------------------------------------------------------I
                 x7
e---------------10I----------------I
B---------787878--I7878-8----------I
G-----------------I----------------I
D-----------------I----------------I
A-----------------I----------------I
E-----------------I----------------I