Gripin - Y��z��mden D����en Bin Par��a

intro

E--0--0--0-0--0--0--0--0--0-0--0-0--0--0-0----- ]
A--7--7--0-0--0--7--0--7--7-7--0-0--0--7-7----- ]
---9--9--0-0--0--9--0--9--9-9--0-0--0--9-9----- ]   (A)
----------------------------------------------- ]
----------------------------------------------- ]
e---------------------------------------------- ]


E---------------------------------------------- ]
A--3-----------------2------------------------- ]
-----5-------5---------5-------5--------------- ]   (B)
-------0---0---0---------0---0---0------------- ]
---------0-----------------0------------------- ] 
e---------------------------------------------- ]                        


2 Kere (A),Sonra (B),Sonra 1 Kere (A) 1 kere (B)

Em          Am 
100 mden den 1000 paray 
 C         Bm           (A)Ksm 1 Kere
Toplayp attm kum saatine
Em         Am  
Belki zamanla bir ihtimal 
 C         Bm       (A)Ksm 1 Kere
Eriyip akar gider diye 
C        Bm
Glmseyecek ey kalmad 
Am      Em         D
Dnp baknca maziye 

C     Bm      Am            Em
Sen bazen ellerim dokunur diye 
      C              Bm          Am
Haykrdn korkuyla kanatsz melee 
       Em
Eriyip giderken 
C     Bm       Am          Em
Ben zaten gzlerin donuk diye
C              Bm         Am 
Dokunmazdm buzlu cam yzne
     Em            
rkeklik niye.... 

 tekrar intro


ok yrdk yol almadk 
Soluklanmak iin durmadan 
Ksrdngye adm attk 
Bastmz yere bakmadan 
Beyaz bayrak ekilmedi cephanesiz kalmadan 

Sen bazen ellerim dokunur diye 
Haykrdn korkuyla kanatsz melee 
Eriyip giderken 
Ben zaten gzlerin donuk diye 
Dokunmazdm buzlu cam yzne 
rkeklik niye....