Teoman - Anl��yorsun De��il Mi?

D|---------------7--7-7-5--5-7-5-4--|  X7  #:SUS ARET
A|-2p0-2--2-2-2---------------------|

D|-------------7-#-----|
A|-2p0-2-2-4-5---------|
Dize X1
A|-------------------------------------------------|
E|-3-3-3-3-3-3-3-3-3-3-3-3-3-3-3-3-7-7-7-7-7-7-7-7-|

A|-----------------7-7-7-7-7-7-7-7-5-5-5-5-5-5-5-5-|
E|-7-7-7-7-7-7-7-7---------------------------------|

A|-4-4-4-4---------2-2-2-2-2-2-2-2&10-10-10-10-10-10-|
E|---------2-2-2-2-----------------------------------|

A|-10-10-10-10-10-10-10-10-10-10'2-2-2-2-2-2-2-2-2-2-|
E|---------------------------------------------------|

A|-2-2-2-2-2-2-7-7-7-7-7-7-7-7-5-5-5-5-5-5-5-5-4-4-4-4-|
E|-----------------------------------------------------|

A|---------2-2-2-2-2-2-2-2-|
E|-2-2-2-2-----------------|
n Nakarat X1
G|-------------4-------------------|  X2
D|-5-5-5-5-5-5---4-4-4-4-4-4-4-4-4-|

D|-5-5-5-5-5-5-5-5-4-4-4-4-4-4-4-4-------------|
A|---------------------------------5---0---2---|
Nakarat X1
A|--------------------------------|  X3
E|-2---0---2-#---2-#--4-#-6-#-7-#-|

A|----------------------------|
E|-2---0---2-#---2-#--4-#-6-#-|
Giri:
D|---------------7--7-7-5--5-7-5-4-|  X3
A|-2p0-2--2-2-2--------------------|

D|--------------7-#----|
A|-2p0-2--2-4-5--------|
Dize X1
n Nakarat X1
Nakarat X1
Gei:
D|---------------7--7-7-5--5-7-5-4-|--------------7-#-7-|
A|-2p0-2--2-2-2--------------------|-2p0-2--2-4-5-------|
Solo: 
D|-9-9-9-9-9-9-9-9-7-7-7-7-7-7-7-7-5-5-5-5-5-5-5-5-|
A|-------------------------------------------------|

D|-4-4-4-4-4-4-4-4-2-#-2--2-2-2-2-2-2-2-2-2-2-2-2-2-|
A|--------------------------------------------------|

D|-5---4---2-------------|
A|-------------5---4h5-2-|
n Nakarat: 
G|-------------4-------------------|
D|-5-5-5-5-5-5---4-4-4-4-4-4-4-4-4-|

G|-------------4-5-----------------|
D|-5-5-5-5-5-5-----4-4-4-4-4-4-4-4-|

D|-5-5-5-5-5-5-5-5-4-4-4-4-4-4-4-4-------------|-------|
A|---------------------------------5---0---2---|-------|
E|---------------------------------------------|-2&9'2-|
Nakarat: X1
A|--------------------------------|  X4
E|-2---0---2-#---2-#--4-#-6-#-7-#-|
Biti:
A|-----|-----------------------------------------------|
E|-7'2-|-2-2-2-2-0-0-0-2-2-2-2-2-2-2-2-2-2-2-2-2-4--6--|

A|-----------------|-----------------------------------|
E|-7-7-7-7-7-7-7-7-|-2-2-2-2-0-0-0-2-2-2-2-2-2-2-2-2-2-|

A|---------------------|
E|-2-2-2-4--6--7--'0-#-|