Piiz - Vazge�� G��n��l

ntro:

e|--------------------------------------------------------------------------|
B|----10-9---9-7---7-5--5-7-------------------------------------------------|
G|---11-----9-----7---------7-7-6---6-----------------7-6-7-6---6-----------|
D|--11-----9-----7---------------9-9--7-7-6-6-7-6-7-9----9---9-9-7-7-6------|
A|-9------7-----5--------------------------9---9----------------------9-9-8-|
E|--------------------------------------------------------------------------|

e|--------------------------------------------------------------------------|
B|---------10-9-7-9-------9-7-7-------7-5-5-7-------------------------------|
G|---------------------------9---------------7-7-6---6----------------------|
D|-11-12-11---------9-11-9-------7-9-7------------9-9--7-7-6--6-7---6-7-9---|
A|----------------------------------------------------------9----9----------|
E|--------------------------------------------------------------------------|

e|----------------------------|
B|----------------------------|
G|-7-6---7-6----6-------------|
D|----9-----9--9-7--7-6-------|
A|---------------------9-9-8--|
E|----------------------------|


F#5      E5         D5            Bm5
Neyleyim Doan Gn, Neyleyim Sensiz Gn

Geceler oalrken Aydnlk Kr Getirmez ki

Sevda Bahesinde Kurutulmu Bir Gl dim         |
F#5      E5             D5    E5       F#5       | 2x
Beni Sakla Bir mr Sev Diye Diye lendim aaahh  |


F#5                 E5      D5    C#5
Vazge Gnl Vazge Sesini Duyan Yok  &Seni Anlayan YoK
         D5  C#5  Bm5 D5    C#5       A5
Bir Yamurun inde Ate Bcei Misali
    A  A#5 Bm.5         G#5
Bir Yanp   Bir Sndn


Akorlar: 
  
F#5 e-x      E5  e-x    D5  e-x   Bm5  e-x   C#5  e-x   A5  e-x   A#5  e-x
    B-x          B-x        B-x        B-x        B-x       B-x        B-x
    G-11         G-9        G-7        G-4        G-6       G-x        G-x
    D-11         D-9        D-7        D-4        D-6       D-7        D-8
    A-9          A-7        A-5        A-2        A-4       A-7        A-8
    E-x          E-x        E-x        E-x        E-x       E-5        E-6

Bm5.  e-x   G#5  e-x
      B-x        B-x
      G-x        G-x
      D-9        D-6
      A-9        A-6
      E-7        E-4