Grup 84 - Kara G��zl��m

Seksendrt - Kara Gzlm

  
  AaaAAaAAAAaa (intro)

e|------------------------------|                 
B|------1----1-----1-----0------|
G|-----2----2-----2-----2--2----|
D|----2----2-----0-----0----0---|
A|---0--------------------------|
E|-------3-----2-----1----------|


  Kara Gzlm Beni Niye Terkettin

e|--------------------------------------|
B|--------1---------------------0-------|
G|-------2---------------------2--------|
D|------2---------------------2---------|
A|-----0--------------------------------|
E|--------------------------3-----------|

  Sevdiim mi Yetmedi Yoksa Sylemedin  

e|--------------------------------------|
B|--------1---------------------0-------|
G|-------2---------------------2--2-----|
D|------2---------------------2----2----|
A|-----0--------------------------------|
E|--------------------------3-----------|

  Bi Kerecik Olsun Asma Ne Olur O Gl Yzn

e|------------------------------------------|
B|------------1---------------------0-------|
G|-----------2---------------------2--------|
D|----------2---------------------2---------|
A|---------0--------------------------------|
E|------------------------------3-----------|

    F   G      Am
Sitem Etme Syletme (2x)


Gei= Am G F..... F5 G5 A5


(Kara Gzlm Diye Balayan Yerle Ayn TAB)

Ka Gece Aladm Sesimi Duy Diye
Gzlerimden Akan Yalar Sen Silesin Diye
Bu Yrek Dayanr m Sandn Bu Kadar Acya
Ne olur Elleme u Yalan Gnlme
Ne Olur Glme u Garip Halime

Am                           G
Yoksa Burdan Baka Yalan Bir Diyarda             |
Dm                            Am                 |
Sevdiin mi Var da Beni Oyalarsn                |
C                              G                 |    (4x)      
Kurbann Olam Dklmesin Dudaklarndan            |
        F     G           Am                     |
Ne Olur Syleme Sakn Syleme     E|---2-3-2-3-5-|   (Beni ldrme)