Hasan Cihat ��rter - Rast Pe��rev(Tab)

E||----------------------------|---------------------------------|
B||----------------------------|----8----------------------------|
G||-------------7--------------|--7----7----9-------7---------7--|
D||--------9------------7-9-10-|---------10----10-9----9----9----|
A||--10--------------10--------|-------------------------10------|
E||----------------------------|---------------------------------|
                                                    
---------------------------------------------------|
---------------------------------------------------|
------------------------4-5-4-5-7-5-4---------5-7--|
-------------5-7-5-7-9----------------7-5-7-9------|
--5-7-5-7-9----------------------------------------|
---------------------------------------------------|
                                                        
-------------------------------------------------------|
-------------------------------------------------------|
--------------------------5-7-5-7-9-7-------------7-9--|
--------------7-9-7-9-10--------------10-9-7-9-10------|
--7-9-7-9-10-------------------------------------------|
-------------------------------------------------------|
                                                                                
--0------------------------|--------0----------------|-----0-------------------|
-----8---------------------|-----6-------------------|--1-----3--1--0----------|
--------10--9--7------7----|--7--------7--5--4--5----|-----------------3--0----|
------------------10-------|-------------------------|-------------------------|
---------------------------|-------------------------|-------------------------|
---------------------------|-------------------------|-------------------------|
                                                                                
--------------------------------------------------|----------------------------|
------------5--------------------------3-1-0------|----------------------------|
--4-5-4-5-7---7-5---4---4-5-7-5-4-0----------2-0--|-------------7--------------|
------------------7---7---------------------------|--------9------------7-9-10-|
--------------------------------------------------|--10--------------10--------|
--------------------------------------------------|----------------------------|
                                  
---------------------------------|
----8----------------------------|
--7----7----9-------7---------7--|
---------10----10-9----9----9----|
-------------------------10------|
---------------------------------|
                                                    
---------------------------------------------------|
---------------------------------------------------|
------------------------4-5-4-5-7-5-4---------5-7--|
-------------5-7-5-7-9----------------7-5-7-9------|
--5-7-5-7-9----------------------------------------|
---------------------------------------------------|
                                                        
-------------------------------------------------------|
-------------------------------------------------------|
--------------------------5-7-5-7-9-7-------------7-9--|
--------------7-9-7-9-10--------------10-9-7-9-10------|
--7-9-7-9-10-------------------------------------------|
-------------------------------------------------------|
                                                                                
--0------------------------|--------0----------------|-----0-------------------|
-----8---------------------|-----6-------------------|--1-----3--1--0----------|
--------10--9--7------7----|--7--------7--5--4--5----|-----------------3--0----|
------------------10-------|-------------------------|-------------------------|
---------------------------|-------------------------|-------------------------|
---------------------------|-------------------------|-------------------------|
                                                   
--------------------------------------------------|
------------5--------------------------3-1-0------|
--4-5-4-5-7---7-5---4---4-5-7-5-4-0----------2-0--|
------------------7---7---------------------------|
--------------------------------------------------|
--------------------------------------------------|
                                                             
----0-2-3-2-0-----------0------|----3---3-------------------|
--3-----------3-1-0-1-3---3----|--3---3---3----3-1-0-1-3----|
-------------------------------|----------------------------|
-------------------------------|----------------------------|
-------------------------------|----------------------------|
-------------------------------|----------------------------|
                                                             
----0-2-3-2-0-----------0------|----3---3-------------------|
--3-----------3-1-0-1-3---3----|--3---3---3----3-1-0-1-3----|
-------------------------------|----------------------------|
-------------------------------|----------------------------|
-------------------------------|----------------------------|
-------------------------------|----------------------------|
                                                                   
----0-2-3-2-0---------0-2-0-------|--------0-----------------0----|
--3-----------3-1-1-3-------3-1-0-|--0-1-3---3-1-0-----0-1-3------|
----------------------------------|----------------2-0------------|
----------------------------------|-------------------------------|
----------------------------------|-------------------------------|
----------------------------------|-------------------------------|
                                                           
----------------------------|------------2-5-2-3-----3----|
--3-0-3-0-3----3-1-0--------|----0-3-0-3----------3-------|
---------------------2-0----|--0--------------------------|
----------------------------|-----------------------------|
----------------------------|-----------------------------|
----------------------------|-----------------------------|
                                                                
----3---3-------------------|----0-2-3-2-0---------0-2-0-------|
--3---3---3----3-1-0-1-3----|--3-----------3-1-1-3-------3-1-0-|
----------------------------|----------------------------------|
----------------------------|----------------------------------|
----------------------------|----------------------------------|
----------------------------|----------------------------------|
                                                             
--------0-----------------0----|----------------------------|
--0-1-3---3-1-0-----0-1-3------|--3-0-3-0-3----3-1-0--------|
----------------2-0------------|---------------------2-0----|
-------------------------------|----------------------------|
-------------------------------|----------------------------|
-------------------------------|----------------------------|
                              
------------2-5-2-3-----3----|
----0-3-0-3----------3-------|
--0--------------------------|
-----------------------------|
-----------------------------|
-----------------------------|
                                                    
---------------------------------------------------|
---------------------------------------------------|
------------------------4-5-4-5-7-5-4---------5-7--|
-------------5-7-5-7-9----------------7-5-7-9------|
--5-7-5-7-9----------------------------------------|
---------------------------------------------------|
                                                        
-------------------------------------------------------|
-------------------------------------------------------|
--------------------------5-7-5-7-9-7-------------7-9--|
--------------7-9-7-9-10--------------10-9-7-9-10------|
--7-9-7-9-10-------------------------------------------|
-------------------------------------------------------|
                                                                
---------------------------------------------------------------|
---------------------------------------------------------------|
------------------------------7-9-7-9-11-9---------------9-11--|
----------------9-10-9-10-12---------------12-10-9-10-12-------|
--9-10-9-10-12-------------------------------------------------|
---------------------------------------------------------------|
                                                    
---------------------------------------------------|
------------------------5-7-5-7-8-7-5---------7-8--|
-------------5-7-5-7-9----------------7-5-7-9------|
--5-7-5-7-9----------------------------------------|
---------------------------------------------------|
---------------------------------------------------|
                                                         
----------------------------|---------------------------|
--8--8--8--8--7-8-10-7-8----|---------------------------|
----------------------------|--0--0--0--0---------------|
----------------------------|--------------4-5-7-4-5----|
----------------------------|---------------------------|
----------------------------|---------------------------|
                                                                   
--------------------------------------------|---------------------|
--8-7-5---7-5-----5-------------------------|--------3------------|
--------7-----7-5---7-5-4-7-5-4---4----4----|--4--4--4------------|
--------------------------------7-5----5----|--5--5--5------------|
--------------------------------------------|---------------------|
--------------------------------------------|---------------------|
                                                               
----------------------------|---------------------------------|
----------------------------|----8----------------------------|
-------------7--------------|--7----7----9-------7---------7--|
--------9------------7-9-10-|---------10----10-9----9----9----|
--10--------------10--------|-------------------------10------|
----------------------------|---------------------------------|
                                                    
---------------------------------------------------|
---------------------------------------------------|
------------------------4-5-4-5-7-5-4---------5-7--|
-------------5-7-5-7-9----------------7-5-7-9------|
--5-7-5-7-9----------------------------------------|
---------------------------------------------------|
                                                        
-------------------------------------------------------|
-------------------------------------------------------|
--------------------------5-7-5-7-9-7-------------7-9--|
--------------7-9-7-9-10--------------10-9-7-9-10------|
--7-9-7-9-10-------------------------------------------|
-------------------------------------------------------|
                                                                                
--0------------------------|--------0----------------|-----0-------------------|
-----8---------------------|-----6-------------------|--1-----3--1--0----------|
--------10--9--7------7----|--7--------7--5--4--5----|-----------------3--0----|
------------------10-------|-------------------------|-------------------------|
---------------------------|-------------------------|-------------------------|
---------------------------|-------------------------|-------------------------|
                                                                                
--------------------------------------------------|----------------------------|
------------5--------------------------3-1-0------|----------------------------|
--4-5-4-5-7---7-5---4---4-5-7-5-4-0----------2-0--|-------------7--------------|
------------------7---7---------------------------|--------9------------7-9-10-|
--------------------------------------------------|--10--------------10--------|
--------------------------------------------------|----------------------------|
                                  
---------------------------------|
----8----------------------------|
--7----7----9-------7---------7--|
---------10----10-9----9----9----|
-------------------------10------|
---------------------------------|
                                                    
---------------------------------------------------|
---------------------------------------------------|
------------------------4-5-4-5-7-5-4---------5-7--|
-------------5-7-5-7-9----------------7-5-7-9------|
--5-7-5-7-9----------------------------------------|
---------------------------------------------------|
                                                        
-------------------------------------------------------|
-------------------------------------------------------|
--------------------------5-7-5-7-9-7-------------7-9--|
--------------7-9-7-9-10--------------10-9-7-9-10------|
--7-9-7-9-10-------------------------------------------|
-------------------------------------------------------|
                                                                                
--0------------------------|--------0----------------|-----0-------------------|
-----8---------------------|-----6-------------------|--1-----3--1--0----------|
--------10--9--7------7----|--7--------7--5--4--5----|-----------------3--0----|
------------------10-------|-------------------------|-------------------------|
---------------------------|-------------------------|-------------------------|
---------------------------|-------------------------|-------------------------|
                                                   
--------------------------------------------------|
------------5--------------------------3-1-0------|
--4-5-4-5-7---7-5---4---4-5-7-5-4-0----------2-0--|
------------------7---7---------------------------|
--------------------------------------------------|
--------------------------------------------------|
                                                             
----0-2-3-2-0-----------0------|----3---3-------------------|
--3-----------3-1-0-1-3---3----|--3---3---3----3-1-0-1-3----|
-------------------------------|----------------------------|
-------------------------------|----------------------------|
-------------------------------|----------------------------|
-------------------------------|----------------------------|
                                                             
----0-2-3-2-0-----------0------|----3---3-------------------|
--3-----------3-1-0-1-3---3----|--3---3---3----3-1-0-1-3----|
-------------------------------|----------------------------|
-------------------------------|----------------------------|
-------------------------------|----------------------------|
-------------------------------|----------------------------|
                                                                   
----0-2-3-2-0---------0-2-0-------|--------0-----------------0----|
--3-----------3-1-1-3-------3-1-0-|--0-1-3---3-1-0-----0-1-3------|
----------------------------------|----------------2-0------------|
----------------------------------|-------------------------------|
----------------------------------|-------------------------------|
----------------------------------|-------------------------------|
                                                           
----------------------------|------------2-5-2-3-----3----|
--3-0-3-0-3----3-1-0--------|----0-3-0-3----------3-------|
---------------------2-0----|--0--------------------------|
----------------------------|-----------------------------|
----------------------------|-----------------------------|
----------------------------|-----------------------------|
                                                                
----3---3-------------------|----0-2-3-2-0---------0-2-0-------|
--3---3---3----3-1-0-1-3----|--3-----------3-1-1-3-------3-1-0-|
----------------------------|----------------------------------|
----------------------------|----------------------------------|
----------------------------|----------------------------------|
----------------------------|----------------------------------|
                                                             
--------0-----------------0----|----------------------------|
--0-1-3---3-1-0-----0-1-3------|--3-0-3-0-3----3-1-0--------|
----------------2-0------------|---------------------2-0----|
-------------------------------|----------------------------|
-------------------------------|----------------------------|
-------------------------------|----------------------------|
                              
------------2-5-2-3-----3----|
----0-3-0-3----------3-------|
--0--------------------------|
-----------------------------|
-----------------------------|
-----------------------------|
                                                    
---------------------------------------------------|
---------------------------------------------------|
------------------------4-5-4-5-7-5-4---------5-7--|
-------------5-7-5-7-9----------------7-5-7-9------|
--5-7-5-7-9----------------------------------------|
---------------------------------------------------|
                                                        
-------------------------------------------------------|
-------------------------------------------------------|
--------------------------5-7-5-7-9-7-------------7-9--|
--------------7-9-7-9-10--------------10-9-7-9-10------|
--7-9-7-9-10-------------------------------------------|
-------------------------------------------------------|
                                                                
---------------------------------------------------------------|
---------------------------------------------------------------|
------------------------------7-9-7-9-11-9---------------9-11--|
----------------9-10-9-10-12---------------12-10-9-10-12-------|
--9-10-9-10-12-------------------------------------------------|
---------------------------------------------------------------|
                                                    
---------------------------------------------------|
------------------------5-7-5-7-8-7-5---------7-8--|
-------------5-7-5-7-9----------------7-5-7-9------|
--5-7-5-7-9----------------------------------------|
---------------------------------------------------|
---------------------------------------------------|
                                                         
----------------------------|---------------------------|
--8--8--8--8--7-8-10-7-8----|---------------------------|
----------------------------|--0--0--0--0---------------|
----------------------------|--------------4-5-7-4-5----|
----------------------------|---------------------------|
----------------------------|---------------------------|
                                                                    
--------------------------------------------|---------------------||
--8-7-5---7-5-----5-------------------------|--------3------------||
--------7-----7-5---7-5-4-7-5-4---4----4----|--4--4--4------------||
--------------------------------7-5----5----|--5--5--5------------||
--------------------------------------------|---------------------||
--------------------------------------------|---------------------||