Çilekeş - Y.o.k (Bass)

G||-------1---------1----|--1---------3----|--1---------3----|--1---------3----|  )
D||--1---------3---------|-------3----------|-------3----------|-------3---------|  )      Giri byle
A||------------------------|------------------|-------------------|------------------|  )
E||------------------------|------------------|-------------------|------------------|  )


       slap                 parmak            parmak                                             
I------------3----3-----|----------------3----|------------4----|		)
I------------------------|------------3--------|-------3----------|		)	vokal slapten sonra giriyor	
I--x----x------x-------|-------1-------------|--1---------------|		)	tekrarlarn siz ayarlayn
I------------------------|----------------------|-------------------|		)


|--------------------------------|--------------------------------|	)
|--1--1--1--1--1--1--1--1--|--------------------------------|	)
|--------------------------------|--2--2--2--2--2--2--2--2--|	)
|--------------------------------|--------------------------------|	)
					)	elimden hibir ey gelmez....
					)	tekrarlarn siz ayarlayn	
                                                            	)
I--1--1--1--1--1--1--1--1--|--3--3--3--3--3--3--3--3--|	)
I--------------------------------|--------------------------------|	)
I--------------------------------|--------------------------------|	)
I--------------------------------|--------------------------------|	)




|-------1---------1----|--1---------3----|--1---------3----|--1---------3----|  )
|--1---------3---------|-------3----------|-------3----------|-------3---------|  )	tekrarlarn siz ayarlayn    
|------------------------|------------------|-------------------|------------------|  )
|------------------------|------------------|-------------------|------------------|  )


       slap                 parmak            parmak                                             
I------------3----3-----|----------------3----|------------4----|		)
I------------------------|------------3--------|-------3----------|		)	tekrarlarn siz ayarlayn	
I--x----x------x-------|-------1-------------|--1---------------|		)	
I------------------------|----------------------|-------------------|		)



|--------------------------------|--------------------------------|	)
|--1--1--1--1--1--1--1--1--|--------------------------------|	)
|--------------------------------|--2--2--2--2--2--2--2--2--|	)
|--------------------------------|--------------------------------|	)
					)	soloda ritmi deitirirseniz olacaktr
					)	tekrarlarn siz ayarlayn	
                                                            	)	solodan sonra normal devam ediyor
I--1--1--1--1--1--1--1--1--|--3--3--3--3--3--3--3--3--|	)
I--------------------------------|--------------------------------|	)
I--------------------------------|--------------------------------|	)
I--------------------------------|--------------------------------|	)



|-------1---------1----|--1---------3----|--1---------3----|--1---------3----|  )
|--1---------3---------|-------3----------|-------3----------|-------3---------|  )	tekrarlarn siz ayarlayn    
|------------------------|------------------|-------------------|------------------|  )	bu ekilde de bitiyor
|------------------------|------------------|-------------------|------------------|  )