Rafet El Roman - S��rg��n (tab)

SOLO I (ki kere alnacak)

E|------3-5---3-3------------3--------------------|
B|----5-----5-------6-5----------6-6-----5-3------|
G|--5-------------5------------5-------5-----5-2--|
D|---------------------------0--------------------|
A|------0-----------------------------------------|
E|------------------------------------------------|


E|--5---3-3-----------3---------------------------|
B|----5--------6-5--------6-6----5-3--------------|
G|-----------5----------5------5------------------|
D|--------------------0---------------------------|
A|--0---------------------------------------------|
E|------------------------------------------------|


TEKRAR SOLO I (Bir Kere)

SOLO II (Bir kere)(Yalnzca sonunda kk bir detay var)
E|------3-5---3-3------------3--------------------|
B|----5-----5-------6-5----------6-6-----5-3------|
G|--5-------------5------------5-------5-----5-2--|
D|---------------------------0--------------------|
A|------0-----------------------------------------|
E|------------------------------------------------|


E|--5---3-3-----------3---------------------------|
B|----5--------6-5--------6-6----5----------------|
G|-----------5----------5------5---2-4-5----------|
D|--------------------0---------------------------|
A|--0---------------------------------------------|
E|------------------------------------------------|