Burak Bora - Japon Bal��k����s�� (Tab)

intro: (+ iir ksm)

 |---0--------0------------0----------|
 |-------6--------6----3-------3------|
 |-----7--------7--------5-------5-4--|
 |------------------------------------|
 |-0--------0-------------------------|
 |-------------------4-------4--------|

 |------------------------------------|
 |------------------------------------|
 |-----------------------2-------2----|
 |--------------0----2---2---2---2----|
 |-0---3----2--------0---3---0---3----|
 |---1---1----3---3----0---0---0---0--|

 5 tekrardan sonra alta gein

 |---------------0--------------------|
 |---------0-1-3----------------------|
 |-------1----------------------------|
 |-----2------------------------------|
 |---2--------------------------------|
 |-0----------------------------------|

 |-----0--------0--------0-------0----|
 |----0-0-0----0-0------0-0-----0-0---|
 |---5---5----5---0----5---5---5---5--|
 |--7--------5-----5--7-------5-------|
 |-0-----------------0----------------|
 |----------3----------------3--------|

Badem gzlm beni unut bu gemi bir kara tabut
stmzden geti bulut Badem gzlm beni unut
Boynuma sarlma glm benden sana geer lm
Badem gzlm beni unut


 |-----0--------0----5---0---3---0----|
 |------0-0------3-3----0-0-----0-0---|
 |----2--2-----4--4----5---5---5---5--|
 |---3--------5----5--7-------5-------|
 |--3--------5-------0----------------|
 |-1--------3----------------3--------|
Badem gzlm beni unut


 |-5---0----3---0----5---0---3---0----|
 |----0-0-0----0-0------0-0-----0-0---|
 |---5---5----5---0----5---5---5---5--|
 |--7--------5-----5--7-------5-------|
 |-0-----------------0----------------|
 |----------3----------------3--------|
Bu gemi bir kara tabut badem gzlm beni unut
rk yumurtadan rk benden yapacan ocuk
Bu gemi bir kara tabut bu deniz bir l deniz
nsanlar ey       nerdesiniz?

F           G                 Am
Ey insanlar   insanlar nerdesiniz?

Am       G            Am       G
Badem gzlm beni unut bu gemi bir kara tabut
Am       G            Am       G
stmzden geti bulut badem gzlm beni unut
Am       G            Am       G
Boynuma sarlma glm benden sana geer lm
Am       G        Am G  F          G         Am  G
Badem gzlm beni unut    badem gzlm beni unut
F        G         Am
Badem gzlm beni unut