Ogün Sanlısoy - Dön Evine (tab)

^       bend, 
&       tize doru slide
r       release, yaplm bendi geri brakma
p       pull of
h       hammer on
pm      palm muting


intro (5 kere)
0:00 - 0:20
|---------------------------------|
|---------------------------------|
|---------------------------------|
|-2-2-5-2-2-5-2-4-2-2-2-2-4-2-4-2-|
|-2-2-2-2-2-2-2-2-2-2-2-2-2-2-2-2-|
|-0-0-0-0-0-0-0-0-0-0-0-0-0-0-0-0-|

(1 kere)

0:00 - 0:24
|-------------------------------0--|
|-------------------------------0--|
|-------------------------------0--|
|-2-2-5-2-2-4-2-2-2-2-2-2-2-2-2-2--|
|-2-2-2-2-2-2-2-2-2-2-2-2-2-2-2-2--|
|-0-0-0-0-0-0-0-0-0-0-0-0-0-0-0-0--|

----------------------------------------

0:24 - 0:55 
bu ksm yukardakilere benziyor,

2.gitar

0:32|   0:38 - 0:54
|-0-|-------7------------14-----(15)-14----(14)-12--|
|-7-|-7-8-7---7-8-7-5-12----------------------------|
|-9-|-----------------------(14)--------14----------|
|-9-|-----------------------------------------------|
|-7-|-----------------------------------------------|
|-0-|-----------------------------------------------|


----------------------------------------
0:55 - 1:05
|---------------------------------|
|---------------------------------|
|-----2-2-2-2-2-2-2-2-2-2-2-2-2-2-|
|-4-5-2-2-2-2-2-2-2-2-2-2-2-2-2-2-|
|-4-5-0-0-0-0-0-0-0-0-0-0-0-0-0-0-|
|-2-3-----------------------------|

1:04 - 1:08
|---------------------------------|
|---------------------------------|
|---------------------------------|
|-2-2-5-2-2-5-2-4-2-2-2-2-4-2-4-2-|
|-2-2-2-2-2-2-2-2-2-2-2-2-2-2-2-2-|
|-0-0-0-0-0-0-0-0-0-0-0-0-0-0-0-0-|

1:08 - 1:11

|----------------------------------|
|----------------------------------|
|----------------------------------|
|-2-2-5-2-2-4-2-2-2-2-2-2-2-2-2-2--|
|-2-2-2-2-2-2-2-2-2-2-2-2-2-2-2-2--|
|-0-0-0-0-0-0-0-0-0-0-0-0-0-0-0-0--|

-----------------------------------------

1:11 - 1:28
bu ksmda 0:55 - 1:05 in ayns

-----------------------------------------
1:28 - 1:32
|---------------------------------|
|---------------------------------|
|-5-5-5-5-5-5-5-5-5-5-5-5-5-5-5-5-|
|-5-5-5-5-5-5-5-5-5-5-5-5-5-5-5-5-|
|-3-3-3-3-3-3-3-3-3-3-3-3-3-3-3-3-|
|---------------------------------|

1:33 - 1:36
|---------------------------------|
|---------------------------------|
|-2-2-2-2-2-2-2-2-5-5-5-5-5-5-5-5-|
|-2-2-2-2-2-2-2-2-5-5-5-5-5-5-5-5-|
|-0-0-0-0-0-0-0-0-3-3-3-3-3-3-3-3-|
|---------------------------------|

-----------------------------------------

1:37 - 1:44
|---------------------------------|
|---------------------------------|
|---------------------------------|
|-2-2-5-2-2-5-2-4-2-2-2-2-4-2-4-2-|
|-2-2-2-2-2-2-2-2-2-2-2-2-2-2-2-2-|
|-0-0-0-0-0-0-0-0-0-0-0-0-0-0-0-0-|

1:44 - 1:48
|---------------------------------|
|---------------------------------|
|-5-5-5-5-5-5-5-5-5-5-5-5-5-5-5-5-|
|-5-5-5-5-5-5-5-5-5-5-5-5-5-5-5-5-|
|-3-3-3-3-3-3-3-3-3-3-3-3-3-3-3-3-|
|---------------------------------|

1:49 - 1:53
|---------------------------------|
|---------------------------------|
|-2-2-2-2-2-2-2-2-5-5-5-5-5-5-5-5-|
|-2-2-2-2-2-2-2-2-5-5-5-5-5-5-5-5-|
|-0-0-0-0-0-0-0-0-3-3-3-3-3-3-3-3-|
|---------------------------------|

------------------------------------------

1:54 - 3:29

nakarat, stekilerin ayns

aradaki 2.gitar (2:41 den balyor)

|---------------------|
|---------------------|
|---12-12---11-11-----|
|---x--x----x--x------|
|---10-10---9--9------|
|---------------------|

gibi...

------------------------------------------


solo srasnda akorlar bu sray takip ediyor

|---------|
|---------|
|---------|
|-2-10-7--|
|-2-10-7--|
|-0-8--5--|

-------------------------------------------

solo

    pm  pm  pm 
|-----------------------|---------------------|----------------------|--------------------------------||
|-----------------------|---------------------|----------------------|----&12--&10--&8-8--------------||
|-&9---------9--*11^r-9-|---------------------|-*9^r-----------------|--------------------------------||
|----9--11--------------|--&9h12-----9--------|------9--11--------9--|--------------------------------||
|-----------------------|--------12----10-9---|-------------11h12----|--------------------------------||
|-----------------------|---------------------|----------------------|--------------------------------||

|----------------------|-&10--12--10--12-----|-&7-10-10--&10--12----|----------------------------------||
|----------------------|---------------------|-------------------12-|-&10^r----------10^r--------------||
|-&12--11--12--14--14--|---------------------|----------------------|-------12p11h12------12h11--9h8p9-||
|----------------------|---------------------|----------------------|----------------------------------||
|----------------------|---------------------|----------------------|----------------------------------||
|----------------------|---------------------|----------------------|----------------------------------||

|-&12-14-15--14-12-&12-&12--|-&12-&15-&14-&12-&10-|--&7-7-7-7-7-7-7-----|-----------------------------||
|---------------------------|---------------------|---------------------|-----------------------------||
|---------------------------|---------------------|---------------------|-----------------------------||
|---------------------------|---------------------|---------------------|-----------------------------||
|---------------------------|---------------------|---------------------|-----------------------------||
|---------------------------|---------------------|---------------------|-----------------------------||

* olan yerler harmonik,
-------------------------------------------

4:33 - 5:06
|-----------------|----------------------|---------------------|----------------------------||
|--&8-8-8-8-8-----|--&7-7-7-7-7-7-7-7----|--&5-5-5-5-5-5-------|--&3-3-3-3-3-3-3-0-0--------||
|-------------10--|----------------------|---------------------|----------------------------||
|-----------------|----------------------|---------------------|----------------------------||
|-----------------|----------------------|---------------------|----------------------------||
|-----------------|----------------------|---------------------|----------------------------||

|-----------------|----------------------|----------------------------|-----------------------------||
|--&8-8-8-8-8-----|--&7-7-7-7-7-7-7-7-7--|--&12-12-12-12-12-12-12-12--|--&14-14-14-14-14-14-14------||
|-------------10--|----------------------|----------------------------|-----------------------------||
|-----------------|----------------------|----------------------------|-----------------------------||
|-----------------|----------------------|----------------------------|-----------------------------||
|-----------------|----------------------|----------------------------|-----------------------------||

-------------------------------------------
solo tam olmad ama idare eder...