Duman - Yaln��zl��k Payla����lmaz (Tab)

verse a
G|------------------------------------------|
A|------------------------------------------|
D|-------9'-----------5555-7777-------------|
E|-7-7-------2--3-3-------------------------|

   verse b
G|----------------------|
A|----------------------|
D|----------------------|
E|--9-9---6----6-6---2--|
   verse c
G|----------------------|
A|---------7------------|
D|-------7-----7--------|
E|--5-5------5---5------|

   bridge a
               8x         7x
G|-----------|---|------|---|---------------|
A|-----------|---|------|---|---------------|
D|-----------|---|------|---|---------------|
E|-2-2---2---|-2-|-2&14-|14-|---------------|

   chorus
G|------------------------------------------|
A|------------------------------------------|
D|------------------------------------------|
E|-7-7-7777-7-7-7777-5-5--5--5--5-----------|
        ....     ....

   chorus a
G|-------------------------------------------|
A|-------------------------------------------|
D|-------------------------------------------|
E|-3-3-3333-3-3-3333-2-2--2--2--2------------|
        ....     ....
   chorus b
G|-------------------------------------------|
A|-------------------------------------------|
D|-------------------------------------------|
E|-3-3-3333-3-3-3333-2-2-2-2-2-2-2-2---------|
        ....     .... . . . .
   chorus c
  8x__  8x_
G|----|---|----------------------------------|
A|----|---|----------------------------------|
D|----|---|----------------------------------|
E|-10-|-9-|----------------------------------|

   bridge b
   8x  7x
G|---|---|-----------------------------------|
A|---|---|-----------------------------------|
D|---|---|-----------------------------------|
E|-7-|-9-|-10--------------------------------|