Demir Demirkan - Yar��na Kadar (Tab)

|-----------------------------------------------|
|-----------------------------------------------|
|----7&8b~~~~(9)r-7-5-7---5^-5~~~~--------------|
|-----------------------7-----------------------|
|-----------------------------------------------|
|-----------------------------------------------|

|-------------------------------------------------|
|---------------8---------------------------------|
|-----7~'5h7p5----7p5-7rb-5-----------------------|
|---10--------7-------------7~~-------------------|
|-------------------------------5&7'5br-3---------|
|-----------------------------------------5~~'0---|

|---------------------------------------------------|
|-------17r^-15^-13r-15^-17h20-13-------------------|
|-----14^------------------------14~~~--------------|
|---------------------------------------------------|
|---------------------------------------------------|
|---------------------------------------------------|

|----------------------------------------------------|
|------13r&15-13br-h15b--15p13-----------------------|
|-----------------------------14~~-------------------|
|----------------------------------------------------|
|----------------------------------------------------|
|----------------------------------------------------|

|-----------------------------------------------------|
|-----------------------------------------------------|
|------16h17p16-17p16p14------------------------------|
|------------------------17--14h17p14-17p14'12-12-----|
|-----------------------------------------------------|
|-----------------------------------------------------|

|-------------------------------------------------------|
|----------------12^-13^-15^-16b-13^-15b-(17)r-p13------|
|-13~~~-13&14-14~~---------------------------------14~~~|
|-------------------------------------------------------|
|-------------------------------------------------------|
|-------------------------------------------------------|

|--------------------------------------------------------|
|--------------------------------------------------------|
|-16h17p16p14'12----------- 12--16b17r-p16p14-12-13~-----|
|----------------14-12h13h14-----------------------------|
|--------------------------------------------------------|
|--------------------------------------------------------|

|------------------------------15-----------------------|
|---15^-15br-p13--15^-15br-p13---16b~~~~-r--------------|
|-------------------------------------------------------|
|-------------------------------------------------------|
|-------------------------------------------------------|
|-------------------------------------------------------|

Not: 
Parantez iindeki notalar bi nceki notann bend durumu
Parantez iindeki notalara baslrken tele vurulacak