Mor ve ��tesi - Cambaz (Tab)

E-------------------------------------------------------
A-------------------------------------------------------
D-------------------------------------------------------
G--4-5-4----------7-7-5-5-4-----------7-5-4-------------
B--------5h7--5-5-----------8-7-7-5-5-------5h7-5-5-4-4-
e-------------------------------------------------------


E---------------------------
A--------------------------
D------------7---7-4-5-6--- giriin ilk ksm
G--5-5-4-5-4---4-----------
B--------------------------
e--------------------------

E--------------------------------------------- 
A--------------------------------------------- 
D--------------------------------------------- 
G--4-5-4---------7-7-5-5-4--------------7-5-4-   
B--------5h7-5-5-----------8h10-7-5-7-5-------    
e--------------------------------------------- 

----------------------
----------------------  
----------------------
 -----------5-5-------
5h7-5-5-4-4-----4-5---
----------------------

giri iin sol elinizin sere parman D9 a
koyun ve iaret parmanzda A7 ye koyun
kapal yapn ve sadece A ve D ye vurun!zorlayabilir brz.

A-7-7-7-7-7-6-6-6-6-6-5-5-5-5-5-4-4-4-4-4-----
D-9-9-9-9-9-9-9-9-9-9-9-9-9-9-9-9-9-9-9-9-----

akorlarn hepsini bare basn!!!en altta var basllar!   

E           Eb
Ne habersin ne trksn
 D           Db            c-g#
Seni gren yollara dklsn
 E          Eb
Kul oldun kle oldun
 D              Db       c-g# 2 defa
Kurun geirmez cam oldun

------------------------
       Am           D
Btn dnya izler durur
       G             C
Afet-i azam bekler durur
     Am             B               Em
Hedefini al, piyasan al, her eyi al
 Am                 D
Yand dertler bitti tasa
       G           C
Ben kurbanm bu cambaza
    Am            B             Em
ki gzm kadaR eminim sen yoksun

 E         Eb
Var msn, yoksun
 D          Db
Var msn, yoksun
 C            B           Em
ki gzm, eminim, sen yoksun
 E         Eb
Var msn, yoksun
 D          Db          c-gx2
Var msn, yoksuuuuuuuunnnn

E--7---------- ===>>BU E AKORU
A--7----------         Eb-E BASILIYKEN BR SOLU
D--7-9--------         D -BR SOL DAHA
G--7-9--------         Db-BR SOL DAHA
B--7-9--------         C -BR SOL DAHA
e--7----------  

E-4-----  ===>>BU G# AKORU
A-4---6--
D-4---6--
G-4-5----
B-4-----
e-4-----

E-5---  ===>>BU Am AKORU
A-5-7--
D-5-7--
G-5---
B-5---
e-5---

E---   ====>> BU Em AKORU
A-2--
D-2--
G---
B---
e---

E-2--- ===>>BU B AKORU
A-2---
D-2-4--
G-2-4--
B-2-4--
e-2---

KtX