Mor ve ��tesi - Re (Tab)

E ----10----------:12----------12--:14--14-:9---10--9---10:
B --------10------:----10------10--:10--10-:10--10--10--10:
G 11----------11--:--------11------:-------:9-------------:
D 0-----------0---:----------------:-------:--------------:
A ----------------:----------------:-------:--------------:
E ----------------:----------------:-------:--------------:

E ----15----------:15----------15--:14--14-:12------12----:
B --------12------:----12----------:12--12-:----15------15:
G 12----------12--:--------12------:-------:--------------:
D ----------------:----------------:-------:--------------:
A ----------------:----------------:-------:--------------:
E ----------------:----------------:-------:--------------:

E -------9--10--12--:--6--6--7--9------:
B ----10----10--10--:--7--7--7--7------:
G --9---------------:--6---------------:
D ------------------:------------------:
A ------------------:------------------:
E ------------------:------------------:
szler:
E -------------:-------------:-------------:0-----2------:
B ---------3---:---------3---:---------0---:---0-----0---:
G ------0-----0:------0-----0:------0-----0:------------0:
D ---4---------:---4---------:---2---------:-------------:
A 2------------:0------------:2------------:-------------:
E -------------:-------------:-------------:-------------:
            YiNE   BEN   MiYiM  DEN.............         
E -------------:-------------:-------------:-------------:
B ---------2---:---------2---:---------3---:---------3---:
G ------3-----3:------3-----3:------0-----0:------0-----0:
D ---4---------:---4---------:---4---------:---4---------:
A 4------------:4------------:2------------:0------------:
E -------------:-------------:-------------:-------------:
    Hi............. ZAMANIM..... DA..... YOK Ki........
E -------------:-------------:-------------:0-----2------:
B ---------3---:---------3---:---------0---:---0-----0---:
G ------0-----0:------0-----0:------0-----0:------------0:
D ---4---------:---4---------:---2---------:-------------:
A 2------------:0------------:2------------:-------------:
E -------------:-------------:-------------:-------------:
           YiNE    BEN   KOPUP    GELEN..............
E -------------:-------------:-------------:-------------:
B ---------2---:---------2---:---------3---:---------3---:
G ------3-----3:------3-----3:------0-----0:------0-----0:
D ---4---------:---4---------:---4---------:---4---------:
A 4------------:4------------:2------------:0------------:
E -------------:-------------:-------------:-------------:
   BiL..............MEDiiM...... EY.... YOK Ki.........

     YiNE DE GELDiM DNYAYA. (D--G)
     Hi ZAMANIM DA YOK Ki   (A--Bm)
     YiNE DE GELDiM DNYAYA  (D--Gm) 
     Hi YOK ............    (A--F#)
Bm) (A)   (G)    (F#) 
iiM YANAR iiM BLMEZ   Thank you. MOR VE TES