Murat Kekilli - Ayr覺l覺k (Tab)

Kapo 3
     Dm                Am
E----------1----1--------------0-----0-------E   |       
B--------3---3----3--------------1-----1-----B   |       
G------2-------2------------2-------2--------G   -> A       
D----0--------------------2------------------D   |       
A-----------------------0--------------------A   |       
E--------------------------------------------E   |       
                                                        
     Dm                Am                               
E----------1h3-1--3------------0-----0-------E          
B--------3-----------------------1-----1-----B           
G------2--------------------2-------2--------G          
D----0--------------------2------------------D          
A-----------------------0--------------------A          
E--------------------------------------------E          
                                                        
     Gm                Bbm                              
E----------1-----1------------1-----1--------E   |       
B------------1-----1------------2-----2------B   |       
G--------4-----4------------3-----3----------G   -> B       
D-------------------------3------------------D   |       
A------5----------------1--------------------A   |       
E----3---------------------------------------E   |       

     Gm                Am
E----------1-----1------------0-----0--------E
B------------1-----1------------1-----1------B
G--------4-----4------------2-----2----------G
D-------------------------2------------------D
A------5----------------0--------------------A
E----3---------------------------------------E

Tekrar A                                                   
 
    Dm                Am                               
E----------1-----3h5-----------0-----0-------E          
B--------3---3--------------------1-----1----B          
G------2-------2-------------2-------2-------G          
D----0--------------------2------------------D          
A-----------------------0--------------------A          
E--------------------------------------------E          

Tekrar B
     Gm                Bbm
E--------------------------------------------E
B----------3------------------2--------------B
G--------4------------------3----------------G
D-------------------------3------------------D
A------5----------------1--------------------A
E----3---------------------------------------E

     Am                Gm
E----------------------------------E
B----------3h5-5--------------3----B
G--------2------------------4------G
D------2---------------------------D
A----0--------------------5--------A
E-----------------------3----------E

     Bbm                Am
E-----------------------------0-----0--------E
B----------2--------------------1-----1------B
G--------3------------------2-----2----------G
D------3------------------2------------------D
A----1------------------0--------------------A
E----------------------------------------0---E