Bulutsuzluk Özlemi - Yol (Bas Tab)

iNTRO
G|---------|---------|---------|------------|
D|---------|---------|---------|------------|
A|---------|---------|---------|------------|
E|-7-7-7-7-|-5-5-5-5-|-3-3-3-3-|------------|
 '_2 defa_&'_2 defa_&'_4 defa_&
''__Elektro Gitar girene kadar calinacak__&&


G|----------------|----------------------------------|
D|----------------|----------------------------------|
A|--------2-------|---------2-------2-0---3-2-0------|
E|-0-0-2-3--3-2-3-|-0-0-2-3---3-2-3-----3-------3-2-0|
 '____5 defa_____&

YiNE DUSTUK YOLLARA...
G|---------------------|
D|---------------------|
A|---------2-----------|
E|-0-0-2-3---3-2-3-----|

AYAGIM GAZ PEDALINDA...                                ''' 
G|-----------------------------------------------------   
D|---------------------------2-5-2---4-7-4-------------   
A|-2----2-5-----7-----7-2--3-------5--------7-7-7-5----   
E|-----------------------------------------------------   '  
                                                          ''' 2 DEFA
--------------------------|                               ''' CALINACAK
--------------------------|                               ' 
-7-7-7-5--7-7-7-5-7-5-----|                               ' 
----------------------7-5-|                            SEEEN VARSINYA...
G|----------------------------------------------------
D|----------------------------------------------------
A|-2-2-2-2-2-2-2--5-5-5-5-5-5-5--7-7-7-5--7-7-7-5-----
E|----------------------------------------------------

-----------------------------------------------------
-----------------------------------------------------
-7-7-7-5--7-7-7-5--2-2-2-2----------7-7-7-5--7-7-7-5-
---------------------------5-5--3-3------------------

----------------------------------------------------
----------------------------------------------------
-7-7-7-5-7-5-----2-2-2-2-2-2-2--5-5-5-5-5-5-5-------
-------------7-5------------------------------------

----------------------------------------------------
----------------------------------------------------
-7-7-7-5--7-7-7-5--7-7-7-5--7-7-7-5--2-2-2-2--5-5---
----------------------------------------------------

----------------------------------|
----------------------------------|
---------2-------2-0---3-2-0------|
-0-0-2-3---3-2-3-----3-------3-2-0|

YiNE DUSTUK YOLLARA...
G|---------------------|
D|---------------------|
A|---------2-----------|
E|-0-0-2-3---3-2-3-----|

BU GONUL GUZEL SEVDI...                                ''' 
G|-----------------------------------------------------   D|---------------------------2-5-2---4-7-4-------------   A|-2----2-5-----7-----7-2--3-------5--------7-7-7-5----   E|-----------------------------------------------------   '  
                                                          ''' 2 DEFA
--------------------------|                               ''' CALINACAK
--------------------------|                               ' 
-7-7-7-5--7-7-7-5-7-5-----|                               ' 
----------------------7-5-|                            'SEEN VARSINYA BOLUMU CALINACAK.
SOLOYA GECILINCE SARKI BITENE KADAR 
G|----------------|
D|----------------|
A|--------2-------|
E|-0-0-2-3--3-2-3-|
BU BOLUM CALINACAK.