Ajda Pekkan - Bamba��ka Biri (Tab-Akor)

Am7                    Dm7           G7
Sardi korkular gelecek yillar dsndm sensiz 
          Cmaj7            Fmaj7    
Nasil yasanacaklar. Gzlerimde canlaninca 
Bm7b5                        E
Yaptigin haksizliklar, glendim 
G#dim       
Hersey bambaska olacak.
             Am7             Dm7                G7                   
Dndm bak geldim simdi, bugn aslinda nasil
            Cmaj7                  Fmaj7                         Bm7b5
Sabirla bekledimdi. Seni aglarken grmek seni aglatabilmek
          E                                 G#dim
Gemisi senden geri almak btn midimdi.
            Am7         Dm7            G7                   Cmaj7
Olmaz artik, kapi aik, arkani dn ve ik istenmiyorsun artik
        Fmaj7                     Bm7b5                 E
Bir zamanlar sende bana acimadin yalniz kaldim 
      G#dim
Yikilmadim ayaktayim...

E||-----------5--------------|--------------------------|
B||--5-----------6--5--6--5--|--------------6--5-----5--|
G||-----7--5-----------------|--7--5--4-----------7-----|
D||--------------------------|-----------5--------------|
A||--------------------------|--------------------------|
E||--------------------------|--------------------------|

--------------------------|-----------------------------||
--------------6--6--6--5--|-----------------------------||
--7--5--4-----------------|--7--5--4--------------------||
-----------7--------------|-----------7--5--------------||
--------------------------|-----------------8--7--------||
--------------------------|-----------------------------||