Teoman - Bir Damla G��zya���� (Tab)

e-2-1h2-2-4----2-1h2-2-4----1---1-------2---9-7-6-7-
B----------------------------2---2------------------
G-----------------------------2---2-----------------
D---------------------------------------------------
A---------------------------------------------------
E---------------------------------------------------
 Ana riff...

e-13-14-13-14-13---14-16-14-16-14---13-14-13-14-13--10-11-10
B-----------------------------------------------------------
G-----------------------------------------------------------
D-----------------------------------------------------------
A-----------------------------------------------------------
E-----------------------------------------------------------
  Bir uyansam...

e-----------------------------------------------------------
B-----------------------------------------------------------
G-----------------------------------------------------------
D--12----10----8----7---------------------------------------
A--12----10----8----7---------------------------------------
E--10-----8----6----5---------------------------------------
  Bir damla gzya...(10. perdeden balayarak power chord)