Y��zy��zeyken Konu��uruz - Yorgunum Ve A��r��lar

Intro : F#m - G# - C#m x2 (2.seferde geiler daha ksa)
E---------------------------------------------------
B---------------------------------------------------
G-----13-11-9-8-9-8 ---------8-9-11-9-8-------------
D--------------------11---------------- 11----------
A---------------------------------------------------
E---------------------------------------------------
E---------------------------------------------------
B---------------------------------------------------
G------8-9----11-13-----14-13--11-9---11--9-8-------
D---------------------------------------------11----
A---------------------------------------------------
E---------------------------------------------------
Kaposu olmayan ve sesi uymayanlar iin ;
F#m : Dm 
C#m : Am
G# : E
E : C 
C#m       G#        C#m
Eskimis, renkli yaz gnlerini 
E    G#  C#m
zlemis gibiyim 
C#m          G#        C#m
kendimi ok yksek bir binadan 
  E       G#       C#m
atmis da lmemis gibiyim
F#m                  G# 
Yorgunum ve agrilar, kiriklarim var 
C#m
Eziklerim, iziklerim... 
F#m             
Biraz daha tanisam seni 
   G#                      C#m
Bu gece basimda beklemeni isterim 
C#m            G#        C#m
Bir haftalik ankara tatilimi 
E          G#      C#m
Bitirmis,doymamis gibiyim 
C#m         G#        C#m
Zincirini kirmis kleler gibi 
E         G#        C#m
Kaan heveslerimi saymamis gibiyim
F#m                  G# 
Yorgunum ve agrilar, kiriklarim var 
C#m
Eziklerim, iziklerim... 
F#m             
Biraz daha tanisam seni 
   G#                      C#m
Bu gece basimda beklemeni isterim 
C#m           G#         C#m
Bir sabah gn dogmadan evden ikmis 
 E       G#        C#m
Ve geri dnmemis gibiyim 
Iimde kalmis ne varsa ne yoksa 
 E         G#     C#m
Hepsini sylemis gibiyim 
F#m                  G# 
Yorgunum ve agrilar, kiriklarim var 
C#m
Eziklerim, iziklerim... 
F#m             
Biraz daha tanisam seni 
   G#                      C#m
Bu gece basimda beklemeni isterim