Film M��zikleri - Zaman Makinesi 1973

(SOLO)

e-------------------------------------------------------------------------------
---|
B-------------------------------------------------------------------------------
---|
G--4&3--1h3--0--1--3--1-3-3-4-4&6-3-1--4-6-6&9-8b-(9-8)-6--3-4-3-8-8-8-6-4-3----
---|

e-------------------------------------------------------------------------------
---|
B-------------------------------------------------------------------------------
---|
G--4&3--1h3--0--1--3--1-3-3-4-4&6-3-1--1p0------0--------------1h3--0-----------
---|
D-------------------------------------------2------2--------------------2-1-----
---|
A------------------------------------------------------4-6-7--------------------
---|


GE 1 
G--1---2---4 )
D--2---4---6 ) ---> Geiler sadece belirtilen yerlerde uygulanr 
A--2---2---4 )

GE 2
e--1--0-----------0--0--0-------|
B--3----3----1----0------3--1--0|
G--2-------4---4--1-------------|
D--0--------------2-------------|
A-----------------2-------------|

GE 3
e----1--1------|
B----3----2----|
G----2------3--|
D----0---------|

E           Am                     
Ka, kendinden de ka brak bana seni.  ( GE 1 ) 
E                          Am  
Yerinde yeller esen o eski halini.
E              Am             E          
Beni korkutan, gittiin o an yanma kalanlarla
Am 
Bir mr gemez ki...

E                Am              
Geri dnme diye, bekledim hep dnmeni.

(GE 2) (steyen Dm - E yapabilir)                         
Sararp solmu gllerle avuttum kendimi.

E                Am 
Yaralarma bakp alyorum gemie 

(GE 3)    E              ---> Gei 3 yerine Dm de uygulanabilir 
Bunu bil de, geri dnme..


(SOLO)


E            Am                              
Ka, ka mevsim geip gider de ak biter. (GE 1)
E                   Am
Ka mevsim geer de gzlerimdeki ya diner.

E                     Am                         E
Yanma kalan aclarla hznl bir rya yitik bir ak
         Dm     
Geri dn diyemedim sadeceeee



E                Am 
Geri dnme diye, bekledim hep dnmeni. -----  

(GE 2) [ Dm - E ]
Sararp solmu gllerle avuttum kendimi.---- ( x2 )

E                Am
Yaralarma bakp alyorum gemie. --------

(Gei 3 )   E  
Bunu bil de, geri dnme.. ------------------