Cem Adrian - Yaln覺zl覺k

Amadd9  Gm7  Fm7  Dm5
                     
E ---   -3-  -1-  -5-
B -1-   -3-  -1-  -6-
G -4-   -4-  -2-  -7-
D -2-   -3-  -1-  -7-
A ---   -5-  -3-  -5-
E ---   -3-  -1-  -5-


(Giri)

--------0-----------0--------------0---------0---
----1-----------1--------------1----------1------
------4-----------4--------------4----------4----
-------------------------------------------------
-0--------------------------------------2--------
-------------3----------0---1--------------------

(1. Nakarat sonuna kadar bu arpej devam ediyor..)

Vurmuyor yzne eskisi gibi sanki
Gnein stmyor i蓾ni

Gelmiyor i蓾nden uzatmak ellerini
Ellerin tutamyor bir kalbi

Bir ka蹥t, bir kalem, bir yanm, bir s霵m, bir bitmi sigara
Hayatn bu

S闥lm, atlm, krlm, d闥lm hep parampar蓷
Yolun sonu bu


(Burda arpej biraz hzlanyor)


Yalnzlk
Sakland蹥n o k踙k delikte buluyor seni
Yalnzlk
Seviti簨n o kalpsiz bedende uyuturuyor seni
Yalnzlk
Skt蹥n o k踙k evinde vuruyor seni
Yalnzlk 闤dryor seni
珸dryor beni


(Burdan sonra kopuyor zaten.. Akorlar bu ekilde)

Amadd9 - Gm7 - Fm7 - Dm5 x2


       Amadd9        Gm7
Yalnzlk
            Fm7                Dm5
Sakland蹥n o k踙k delikte buluyor seni
Yalnzlk
Seviti簨n o kalpsiz bedende uyuturuyor seni
Yalnzlk
Skt蹥n o k踙k evinde vuruyor seni
Yalnzlk 闤dryor seni
珸dryor beni


Yalnzlk 蓷蹥nn kalbi krk 蔞cuklar
Yalnzlk o simsiyah ellerinde
Yalandan ninnileriyle bytyor bizi


(Arpej)

Bir ka蹥t, bir kalem, bir yanm, bir s霵m, bir bitmi sigara
Hayatn bu

S闥lm, atlm, krlm, d闥lm hep parampar蓷
Yolun sonu bu............

Amadd9 - Gm7 - Fm7 - Dm5