Onur Ak��n - Yagmur Y��reklim (tab)

E|-----------0--1-------|-1----------1--0--1--3-----|
B|--------3--------3--l-|-----3--l------------------|
G|----------------------|---------------------------|
D|----------------------|---------------------------|
A|----------------------|---------------------------|
E|----------------------|---------------------------|

--L----0--1--0----------|-------------------|------------------
----------------3--1--3-|--1------1----1--1-|------1--3--------
------------------------|-------------------|---3--------3--L--
------------------------|-------------------|------------------
------------------------|-------------------|------------------
------------------------|-------------------|------------------

-----------------0-|------------------------|-------------------
-1-------3--1--3----|-----1--3--1------------|-------------------
---3--L-------------|---------------3--3--2--|--2------2----2--2-
--------------------|------------------------|-------------------
--------------------|------------------------|-------------------
--------------------|------------------------|-------------------

----------------------|---------------------|----------------
-----------1----1--1--|--1--1--L----1---------------1--------
*--2----3-------------|------------------3--|3--3--3-----3--2
*---------------------|---------------------|----------------
----------------------|---------------------|----------------
----------------------|---------------------|----------------


--------0--------|--------------------|-------------0-------|
------3-----1----|-------1--3----3--3-|3----3----3-----1----|
--2------------3-|--2-----------------|---------------------|
-----------------|--------------------|---------------------|
-----------------|--------------------|---------------------|
-----------------|--------------------|---------------------|


--------0------0--|-----0------------|-------------------0--
---1--1-----------|-3-------1--1-----|--3--------3--1--3----
------------------|----------------3-|----------------------
------------------|------------------|----------------------
------------------|------------------|----------------------
------------------|------------------|----------------------


|-1-------0--1-------|--1--------1--0--1--3-|-0--1--0---------
|----3-------3--L----|-----3--l-------------|---------3--1--3-
|--------------------|----------------------|-----------------
|--------------------|----------------------|-----------------
|--------------------|----------------------|-----------------
|--------------------|----------------------|-----------------


------------------|----------------------