Okan Ünver - Arabesk (tab)

E||--4----4--4-6-4---4--|-----4-4--4--4-6-4---4-|
B||----------------7----|-------------------7---|
G||---------------------|-----------------------|
D||---------------------|-----------------------|
A||---------------------|-----------------------|
E||---------------------|--4--------------------|

-------4--6----------|------------6-7-6-4-6-4---|
----7----------7--7--|--7S--11----------------7-|
---------------------|--------------------------|
---------------------|--------------------------|
---------------------|--------------------------|
4--------------------|--------------------------|

---------------4--------|--------------4--------|
-----7-7--7--7---7-6-7--|----7-7--7--7---7-6-7--|
------------------------|-----------------------|
------------------------|-----------------------|
------------------------|-----------------------|
------------------------|-----------------------|

-----------4--------|-----------4-6-4---4-------|
-----5--7-----5--5--|--5S--9----------7---7-5-4-|
--------------------|---------------------------|
--------------------|---------------------------|
--------------------|---------------------------|
--------------------|---------------------------|

----------------------|-------------------------|
---5--5--5--5-7-5-4-5-|--L--5--5--5--5-7-5-4-5--|
----------------------|-------------------------|
----------------------|-------------------------|
----------------------|-------------------------|
----------------------|-------------------------|

----------------------|-------------------||
-----4--5--7----4--5--|--7----------------||
----------------------|-------------------||
----------------------|-------------------||
----------------------|-------------------||
----------------------|-------------------||






Ebm
Hata canna yandm  )
                      )
Sensiz hayat          )
                      )
Daha ne isterim       )
                      )
Ben seni beklerim     )
              Abm     )
Yetti canma          )x2
                      )
Yolunu gzlerim       )
                      )
stne titrerim       )
                      )
Btn emeklerim       )
Dbm       Ebm         )
Al eni benden         )

Abm      Ebm       Abm
Ahhh  . aman sineme vura vura
Gb                   Abm
Gsme vura vura aard sam
Dbm          Ebm
Vay benim bam

Abm                              Gb   )
Senin kara gzlerine bir haller olmu )
                                 Dbm  )
Elindeki masum gller kan revan olmu )
                            Gb        )x2
Ah olmu vah olmu of aman olmu      )
Abm            Gb      Dbm      Ebm   )
Bizim irin akmz arabesk olmu     )

Ebm
Sonras malum

Sensiz hayat

            (lk ktadan)