[Arama Yap] - [Ana Sayfa] > [O] > [Olgun Şimşek Gitar Akorları] > Otur Baştan Yaz Beni Gitar Akoru

Geri dönmek için TIKLAYIN

Olgun Şimşek - Otur Baştan Yaz Beni

E|--------------------------------------------------------------------------

B|-14-13-14-11-11-14-14-13-13-11-11-9-11-13-11-11---------------------------
D|--------------------------------------------------------------------------
D|--------------------------------------------------------------------------
A|--------------------------------------------------------------------------
E|--------------------------------------------------------------------------

E|--------------------------------------------------------------------------
B|-11-9-9-7-9-11-9-9-7-9-7-9-11-9-7-6---------------------------------------
D|--------------------------------------------------------------------------
D|--------------------------------------------------------------------------
A|--------------------------------------------------------------------------
E|--------------------------------------------------------------------------

Fm Dm7
Üflediler söndüm
F# (Dm7) Fm
Karanlıkta gönlüm
Fm Dm7
Hiç bilmezdim ama
F# (Dm7) Fm
Derindeymiş pek derdim

Fm (Dm7 Fm) ]
Bak içime gör beni ]
Fm Dm7 ]
Tut elimden yak beni ] ◄ F ► (Nakarat) [[ x2 ]]
F# Dm7 ]
İstemezsen bu aşkı ]
Fm ]
Otur baştan yaz beni ]

Fm Dm7
Aklım nasıl şaşkın
F# (Dm7) Fm
Sevdam deli taşkın
Fm Dm7
Sen görmezsin amma

[ reklamı gizle / hide ads ]
[ kaynak: //akor.alternatifim.com/goster.asp?ac=10170 ]
F# (Dm7) Fm
Narındayım ben aşkın

Fm (Dm7 Fm) ]
Bak içime gör beni ]
Fm Dm7 ]
Tut elimden yak beni ] ◄ F ► (Nakarat) [[ x2 ]]
F# Dm7 ]
İstemezsen bu aşkı ]
Fm ]
Otur baştan yaz beni ]

E|--------------------------------------------------------------------------
B|-6-7-9-9-11-13-11-9-7-9-7-11-7-7-6----------------------------------------
D|--------------------------------------------------------------------------
D|--------------------------------------------------------------------------
A|--------------------------------------------------------------------------
E|--------------------------------------------------------------------------

E|--------------------------------------------------------------------------
B|-6-7-9-9-11-13-11-9-7-9-7-11-7-7-6----------------------------------------
D|--------------------------------------------------------------------------
D|--------------------------------------------------------------------------
A|--------------------------------------------------------------------------
E|--------------------------------------------------------------------------

E|--------------------------------------------------------------------------
B|-14-13-14-11-11-14-14-13-13-11-11-9-11-13-11-11---------------------------
D|--------------------------------------------------------------------------
D|--------------------------------------------------------------------------
A|--------------------------------------------------------------------------
E|--------------------------------------------------------------------------

E|--------------------------------------------------------------------------
B|-11-9-9-7-9-11-9-9-7-9-7-9-11-9-7-6---------------------------------------
D|--------------------------------------------------------------------------
D|--------------------------------------------------------------------------
A|--------------------------------------------------------------------------
E|--------------------------------------------------------------------------

Arkadaşına Gönder      Sayfayı Yazdır      Hata Düzelt
© 2003-2016 www.alternatifim.com/ Her Hakkı Saklıdır.