[Arama Yap] - [Ana Sayfa] > [D] > [Doobie Brothers Gitar Akorları] > Long Train Running(Tab) Gitar Akoru

Doobie Brothers - Long Train Running(Tab)

Intro:

+ - G11 (no 3rd)
|
|
v Gm7
| -10-------10-10--|--10--10---10---- |
| -10-h-11--11-11--|--11--11---10---- |
|:-10-------10-10--|--10--10---10----:|
| -10-h-12--12-12--|--12--12---10---- |
| -10-------10-10--|--10--10---10---- |
| -x--------x--x---|--x---x----x----- |


[ reklamı gizle / hide ads ]
[ kaynak: http://akor.alternatifim.com/goster.asp?ac=9332 ]

Lots of strumming here, I'm just showing the fingerings
Cm7 Cm7 Cm6&7 (or Cm7 add 13)
|-8----------------|-8-------8--------|
|-8----------------|-11------10-------|
|-8----------------|-8-------8--------| then repeat intro 2x
|-8----------------|-8-------8--------|
|-10---------------|-10------10-------|
|-8----------------|-8-------8--------|


Again, lots of strumming
D#7 Gm7 D7
|--11--------------|--10------10------|
|--11--------------|--11------10------|
|--12--------------|--10------11------| then back to intro.
|--11--------------|--12------10------|
|--13--------------|--10------12------|
|--11--------------|--10------10------|

Arkadaşına Gönder      Sayfayı Yazdır      Hata Düzelt
© 2003-2014 www.alternatifim.com/ Her Hakkı Saklıdır.