[Arama Yap] - [Ana Sayfa] > [F] > [Film Müzikleri Gitar Akorları] > Desperado (tab) Gitar Akoru

Film Müzikleri - Desperado (tab)

Reklam
e---------7-7---7-7--8-7-7-------8-7-7------------------------------------ 

B-------8--------------------8----------8--10-10--------------------------
G-----9-------------------------------------------------------------------
D-------------------------------------------------------------------------
A---7---------------------------------------------------------------------
E-------------------------------------------------------------------------

e--------------------7------------7---------------------------------------
B---7-8-10-10-10-10-----10-10-10-----10-10-7-8-8--------------------------
G-------------------------------------------------------------------------
D-------------------------------------------------------------------------
A-------------------------------------------------------------------------
E-------------------------------------------------------------------------

e---------7-7--7-7--8--7-7-----8-7-7--------------------------------------
B---8-10--------------------8---------8--10--10---------------------------

[ reklamı gizle / hide ads ]
[ kaynak: http://akor.alternatifim.com/goster.asp?ac=4812 ]
G-------------------------------------------------------------------------
D-------------------------------------------------------------------------
A-------------------------------------------------------------------------
E-------------------------------------------------------------------------

e--------------------7------------7---------------------------------------
B---7-8-10-10-10-10-----10-10-10-----10-10-7-8-8--------------------------
G-------------------------------------------------------------------------
D-------------------------------------------------------------------------
A-------------------------------------------------------------------------
E-------------------------------------------------------------------------

e---12-14-12-11---8-7---------12-14-12-11--8-7-7--11-11-12----------------
B----------------------10-8-----------------------------------------------
G-------------------------------------------------------------------------
D-------------------------------------------------------------------------
A-------------------------------------------------------------------------
E-------------------------------------------------------------------------



Şarkı boyunca Em(7. perde) basarsanız daha kolay olur.Ayrıca iki kişi çalmayı denerseniz akorlarını Em(7.perde) ve B(7. perde) olarak çıkarttım ama birde siz deneyin derim umarım güzel olmuştur. Herkese kolay gelsin :)

Arkadaşına Gönder      Sayfayı Yazdır      Hata Düzelt
© 2003-2016 www.alternatifim.com/ Her Hakkı Saklıdır.