[Arama Yap] - [Ana Sayfa] > [N] > [Nirvana Gitar Akorları] > Lake Of Fire Gitar Akoru

Geri dönmek için TIKLAYIN

Nirvana - Lake Of Fire

Advertisement
LAKE OF FIRE - 


Tabülatör
Gm - 3553xx
G5 - 355xxx
F5 - 133xxx
Bb5 - x133xx
Bb - x13331
C5 - x355xx
Dm - xx0231
Dsus2 - xx0230
A - x02220
Parçayla eşlik ederseniz soloların nerde olduklarını anlarsınız.

Gm G5'F5 Bb5 Gm C5 Bb5
E-----------------------------------------------
B-----------------------------------5b5b3---------
G-----------------------------------5b5b3---------
D-----------------------------------------------
A-----------------------------------------------
E-----------------------------------------------

Gm G5'F5 Bb5 C5 F5 G5
E-------------------------------------------------------
B-------------------------------------------------------
G---------------------------------5--5-----5------------
D---------------------------------5--5-----5--3--3--5---
A---------------------------------3--3-----3--3--3--5---
E---------------------------------------------1--1--3---

Gm F5 G5 Gm F5 G5
E------------------------------|---------------------------
B------------------------------|----11~-11~-11~-11~-11~-6~--6~&8~--
G------------------------------|-&10--10~-10~-10~-10~-10~--'5~--5~--&7~--
D---------------------3--------|-----------------------------------------
A-5-5-5-5-5-5-5-5-3---1---5----|-----------------------------------------
E-3-3-3-3-3-3-3-3-1-------3----|-----------------------------------------


Gm F Bb
Where do bad folks go when they die?
Gm C5 Bb
They don't go to heaven where the angels fly
Gm F Bb
They go down to the lake of fire and fry
C F Gm Gm F G F G5
Won't see 'em again till the fourth of july

Dm Bb
I knew a lady who came from duluth

[ reklamı gizle / hide ads ]
[ kaynak: http://akor.alternatifim.com/goster.asp?ac=465 ]
Dm A
She got bit by a dog with a rabid tooth
Dm Bb
She went to her grave just a little too soon
C Dm Dsus2
And she flew away howling on the yellow moon

[Nakarat]

Now the people cry and the people moan
And they look for a dry place to call their home
And try to find some place to rest their bones
While the angels and the devils
Fight to claim them for their own

[Nakarat] Gm F G5 Gm F G5

SOLO
E------3---------3---------------------------------------
B--2-3---3--6b7------6-----------------------------------
G----------------------5-3-------------------------------
D--------------------------5-3----------------------3-5--
A------------------------------5-4-3----------3-4-5------
E------------------------------------6-3----6------------

E--------------------------------------------------------
B--3b4---------------6~----6~----------------------------
G--3b4-------(0)-5&7----7~----7'5--3---------------------
D-------5----------------------------5-------0-3---3-----
A-----------------------------------------&5-----5---5---
E--------------------------------------------------------

E-------------------------------3------------------------
B--------------------6~------&3---3-7-3------------------
G----------------5&7----7'--------------3-5--------------
D-------------------------------------------3---5--------
A--3-----------------------------------------------------
E----6-3-3-3----------------------------------3----------

E--------------------------------------------------------
B--3b4------3b4-----3b4----------------------------------
G--3b4------3b4-----3b4----------------------------------
D------5-5------5-------5-3------------------------3-----
A---------------------------5-4-3------------3-4-5-------
E---------------------------------6-3----3-6-------------

E----------------------
B----------------------
G------(3)-----(4)-----
D--3h5-----(3)-----5---
A----------------------
E----------------------

Arkadaşına Gönder      Sayfayı Yazdır      Hata Düzelt
© 2003-2016 www.alternatifim.com/ Her Hakkı Saklıdır.