[Arama Yap] - [Ana Sayfa] > [K] > [Kataklysm Gitar Akorları] > Laments Of Fear & Despair (tab) Gitar Akoru

Geri dönmek için TIKLAYIN

Kataklysm - Laments Of Fear & Despair (tab)

Advertisement
___ - palm mute

& ' - slide
p - pull off
h - hammer on
" - tremelo pick


INTRO:

|-------------------------|
|-------------------------|
|-------------------------|
|---------3----------3&6--|
|---------3----------3&6--|
|-0-0-0-0-1--0-0-0-0-1&4--| 4x
_______ _______

|-------------------------| |------------------------|
|-------------------------| |------------------------|
|-------------------------| |------------------------|
|---------3----------3&6--| |---------3------2-3-6-6-|
|---------3----------3&6--| |---------3------0-3-6-6-|
|-0-0-0-0-1--0-0-0-0-1&4--| 7x |-0-0-0-0-1--0-0---1-4-4-|
_______ _______ _______ ___


RIFF A:
(Gtr 1)
|-----------------------------------------------------------
|-----------------------------------------------------------
|-----------------------------------------------------------
|-----9---9-----7---7-----10-----9---9-----7---7---10p9-7'5-
|-----------------------------------------------------------
|-0-0---0---000---0---000----000---0---000---0---0----------
___ _ ___ _ ___ ___ _ ___ _ _

(Gtr 2)
|-----------------------------------------------------------
|-----------------------------------------------------------
|-----------------------------------------------------------
|-----5---5-----4---4------7-----5---5-----4---4---10p9-7'5-
|-----------------------------------------------------------
|-0-0---0---000---0---000----000---0---000---0---0----------
___ _ ___ _ ___ ___ _ ___ _ _

(Gtr 1)
----------------------------------------------------------|
----------------------------------------------------------|
----------------------------------------------------------|
-----9---9-----7---7-----9-----9---9-----7---7---10p9-7'5-|
----------------------------------------------------------|
-8-8---8---888---8---888---888---8---888---8---8----------|
___ _ ___ _ ___ ___ _ ___ _ _

(Gtr 2)
----------------------------------------------------------|
----------------------------------------------------------|
----------------------------------------------------------|
-----5---5-----4---4-----5-----5---5-----4---4---10p9-7'5-|
-3-3---3---333---3---333---333---3---333---3---3----------|
----------------------------------------------------------| 2x
___ _ ___ _ ___ ___ _ ___ _ _


RIFF B:

|-------------------------------------------------------------------
|-------------------------------------------------------------------
|------------------4---2h4------------------------------------------
|--------------------2-----5p4-------------5--------5---3h5-----3p2-
|------------------------------5--33333333---333333---3-----3h5-----
|-0000000000000000--------------------------------------------------
________________ ________ ______

--------------------------------------------------------------------
--------------------------------------------------------------------
-------------------4---2h4------------------------------------------
----------2----------2-----5p4-------------5--------5---3h5-----3p2-
-------------------------------5--33333333---333333---3-----3h5-----
-00000000---000000--------------------------------------------------
________ ______ ______ ______

--------------------------------------------------------------------
--------------------------------------------------------------------
----------4--------4---2h4------------------------------------------
----------2----------2-----5p4----5--------5--------5---3h5-----3p2-
-------------------------------5--3-333333-3-333333---3-----3h5-----
-00000000---000000--------------------------------------------------
________ ______ ______ ______

--------------------------------------------------------------------|
--------------------------------------------------------------------|
----------4--------4---2h4------------------------------------------|
----------2----------2-----5p4----5--------5--------5---3h5-----3p2-|
-------------------------------5--3-333333-3-333333---3-----3h5-----|
-00000000---000000--------------------------------------------------|
________ ______ ______ ______


RIFF C:

|--------------------------------|
|----6--------------6------------|
|----5--------------5------------|
|-2--3------5-8--2--3------5-8-7-|
|-2---------5-8--2---------5-8-7-|
|-0-----0-0-3-6--0-----0-0-3-6-5-| 2x
___ ___

(Gtr 1)
|--------------------------------|
|----6--------------6------------|
|----5--------------5------------|
|-2--3------5-8--2--3------5-8-7-|
|-2---------5-8--2---------5-8-7-|
|-0-----0-0-3-6--0-----0-0-3-6-5-| 4x
___ ___

(Gtr 2)
|-----------------------------|
|-----------------------------|
|-----------------------------|
|-----------------------------|
|-2-2-2-2--2-2-2--2-2-2--2-2--|
|-0-0-0-0--0-0-0--0-0-0--0-0--| 8x

[ reklamı gizle / hide ads ]
[ kaynak: http://akor.alternatifim.com/goster.asp?ac=4313 ]
_______ _____ _____ ___


RIFF D:

|-----------------------------|
|-----------------------------|
|-----------------------------|
|-----------------------------|
|-2-2-2-2--2-2-2--2-2-2----5--|
|-0-0-0-0--0-0-0--0-0-0--0-3--| 4x
_______ _____ _____ _


RIFF E:

|-------------------------------------------------|
|-------------------------------------------------|
|----------------------------------------4"-------|
|----5"-4"-5"-7"-5"-4"-5"----5"-4"-5"-7"----7"-5"-|
|-7"----------------------7"----------------------|
|-------------------------------------------------| 2x

|-----------------------------|
|-----------------------------|
|-----------------------------|
|-----------------------------|
|-2-2-2-2--2-2-2--2-2-2--2-2--|
|-0-0-0-0--0-0-0--0-0-0--0-0--| 2x
_______ _____ _____ ___


RIFF F:
(Gtr 1)
|----------------------|
|----------------------|
|----------------------|
|-2----5----3----2--3--|
|-2----5----1----0--3--|
|-0----3------------1--| 2x

(Gtr 2)
|---------------------------------------|
|---------------------------------------|
|---------------------------------------|
|---------10-10-9-9-10-10-----10-10-9-9-|
|-7-7-7-7-----------------7-7-----------|
|---------------------------------------| 4x
_____________________________________


UNDER SOLO:

|----------------------|
|----------------------|
|----------------------|
|-2----5----3----2--3--|
|-2----5----1----0--3--|
|-0----3------------1--| 2x

|----------------------|
|----------------------|
|----------------------|
|----------------------|
|-----------1"---0"----|
|-0"---3"-----------1"-| 2x
____________________

(Gtr 1)
|-------------------------------------------------|
|-------------------------------------------------|
|-------------------------------------------------|
|-2-----------------------------------------------|
|-2-----------------------------------------------|
|-0-----------------------------------------------|

(Gtr 2)
|-------------------------------------------------|
|-------------------------------------------------|
|-------------------------------------------------|
|---------3----------3&6----------3----------3&6--|
|---------3----------3&6----------3----------3&6--|
|-0-0-0-0-1--0-0-0-0-1&4--0-0-0-0-1--0-0-0-0-1&4--|
_______ _______ _______ _______


INTRO:

|-------------------------| |------------------------|
|-------------------------| |------------------------|
|-------------------------| |------------------------|
|---------3----------3&6--| |---------3------2-3-6-6-|
|---------3----------3&6--| |---------3------0-3-6-6-|
|-0-0-0-0-1--0-0-0-0-1&4--| 9x |-0-0-0-0-1--0-0---1-4-4-|
_______ _______ _______ ___


RIFF A - 2x


RIFF B


OUTRO:

|--------------------------------|
|----6--------------6------------|
|----5--------------5------------|
|-2--3------5-8--2--3------5-8-7-|
|-2---------5-8--2---------5-8-7-|
|-0-----0-0-3-6--0-----0-0-3-6-5-| 5x
___ ___

(Gtr 1 - fade out)
|--------------------------------|
|----6--------------6------------|
|----5--------------5------------|
|-2--3------5-8--2--3------5-8-7-|
|-2---------5-8--2---------5-8-7-|
|-0-----0-0-3-6--0-----0-0-3-6-5-|
___ ___

(Gtr 2 - fade out)
|---------||---------------------------------|
|---------||---------------------------------|
|---------||---------------------------------|
|---------||---------------------------------|
|-2-2-2-2-||-2-2-2--2-2-2...-----------------|
|-0-0-0-0-||-0-0-0--0-0-0...-----------------|

Arkadaşına Gönder      Sayfayı Yazdır      Hata Düzelt
© 2003-2016 www.alternatifim.com/ Her Hakkı Saklıdır.