[Arama Yap] - [Ana Sayfa] > [F] > [Film Müzikleri Gitar Akorları] > Love Story Gitar Akoru

Film Müzikleri - Love Story

Reklam
love story


E||------------------|
B||------------------|
G||------------------|
D||------------------|
A||------------------|
E||------------------|


E||----------6--6--------|----------6--6--------|----------5--5--------|
B||----3--3--------------|----------------------|----------7--7--------|
G||-------------7--------|----7--7-----7--------|----7--7-----5--------|
D||----------------------|----------------------|----------------------|
A||----------------------|----------------------|----------------------|
E||----------------------|----------------------|----------------------|

--6--------6--6--------|----------6--6-----------|-----------5--5--------|
-----------------------|-------------------------|-----------------------|
-----7--7--------------|----7--7--------7--8--7--|--5--5--5--------------|
-----------------------|-------------------------|-----------------------|
-----------------------|-------------------------|-----------------------|
-----------------------|-------------------------|-----------------------|

----------5--5-----------|-----------3--3--------|----------3--3-----------|
-------------------3-----|-----------------------|-------------------1-----|
----5--5--------5-----5--|--3--3--3--------------|----3--3--------3-----3--|
-------------------------|-----------------------|-------------------------|
-------------------------|-----------------------|-------------------------|
-------------------------|-----------------------|-------------------------|


-----------2--2--------|------3----5---------|-------------------|------------------|
-----------------------|----------------4----|--3----------------|------------------|
--2--2--2--------------|---------------------|-------------------|------------------|
-----------------------|---------------------|-------------------|------------------|
-----------------------|---------------------|-------------------|------------------|
-----------------------|---------------------|-------------------|------------------|

--6--------6--6--------|----------6--6-----------|-----------5--5--------|
-----------------------|-------------------------|-----------------------|
-----7--7--------------|----7--7--------7--8--7--|--5--5--5--------------|
-----------------------|-------------------------|-----------------------|
-----------------------|-------------------------|-----------------------|
-----------------------|-------------------------|-----------------------|



----------5--5-----------|-----------3--3--------|----------3--3-----------|
-------------------3-----|-----------------------|-------------------1-----|
----5--5--------5-----5--|--3--3--3--------------|----3--3--------3-----3--|
-------------------------|-----------------------|-------------------------|
-------------------------|-----------------------|-------------------------|
-------------------------|-----------------------|-------------------------|



-----------2--2--------|------3----5----2----|--7----------------|------8----10---------|
-----------------------|---------------------|-------------------|-----------------8----|
--2--2--2--------------|---------------------|-------------------|----------------------|
-----------------------|---------------------|-------------------|----------------------|

[ reklamı gizle / hide ads ]
[ kaynak: http://akor.alternatifim.com/goster.asp?ac=408 ]
-----------------------|---------------------|-------------------|----------------------|
-----------------------|---------------------|-------------------|----------------------|



--11-------------8-----|-----5--5------8--11--8--|--10--------------10------|
--------------8-----8--|--8----------------------|--------------------------|
-----------------------|-------------------------|--------------10------10--|
-----------------------|-------------------------|--------------------------|
-----------------------|-------------------------|--------------------------|
-----------------------|-------------------------|--------------------------|



----------------6--10--6--|--8----------5--8--5--|--6------8--10-----6--10--|
------8--8----------------|----------------------|----------------8---------|
--10----------------------|----------------------|--------------------------|
--------------------------|----------------------|--------------------------|
--------------------------|----------------------|--------------------------|
--------------------------|----------------------|--------------------------|



--11-----------------6--|--6----5------6--8-----|----------------------|
------------------8-----|-----------------------|-------------------6--|
--------------10--------|--------------------8--|--7----------7--8--7--|
------------------------|-----------------------|----------------------|
------------------------|-----------------------|----------------------|
------------------------|-----------------------|----------------------|



--5----3----3--1--------|-------------0--3-----|--2----------------|------------------|
------------------4--3--|--1----------------4--|-------------------|------------------|
------------------------|--5-------------------|-------------------|------------------|
------------------------|----------------------|-------------------|------------------|
------------------------|----------------------|-------------------|------------------|
------------------------|----------------------|-------------------|------------------|



--6--------6--6--------|----------6--6-----------|-----------5--5--------|
-----------------------|-------------------------|-----------------------|
-----7--7--------------|----7--7--------7--8--7--|--5--5--5--------------|
-----------------------|-------------------------|-----------------------|
-----------------------|-------------------------|-----------------------|
-----------------------|-------------------------|-----------------------|



----------5--5-----------|-----------3--3--------|----------3--3-----------|
-------------------3-----|-----------------------|-------------------1-----|
----5--5--------5-----5--|--3--3--3--------------|----3--3--------3-----3--|
-------------------------|-----------------------|-------------------------|
-------------------------|-----------------------|-------------------------|
-------------------------|-----------------------|-------------------------|



-----------2--2--------|------3----5----2----|--3--------15--------|--------------------|
-----------------------|---------------------|---------------------|--------------------|
--2--2--2--------------|---------------------|---------------------|--12----------------|
-----------------------|---------------------|---------------------|--------------------|
-----------------------|---------------------|---------------------|--------------------|
-----------------------|---------------------|---------------------|--------------------|


Arkadaşına Gönder      Sayfayı Yazdır      Hata Düzelt
© 2003-2016 www.alternatifim.com/ Her Hakkı Saklıdır.